New Found Glory - Broken Sound Chords & Tabs

 

Broken Sound Chords & Tabs

New Found Glory Chords & Tabs

Version: 1 Type: Tab 0 ratings
1 star 2 stars 3 stars 4 stars 5 stars
comments

Broken Sound Tab

New Found Glory 
Broken Sound
By Brandon 

e|----3----------3----------------------------------------------------|
B|------3----------3-----------3--------------------------------------|
G|--------------------------------------------------------------------|
D|-2-------2-0---------0---------------------0------------------------|
A|-----------------------33---------3------2--------------------------|
E|------------------------------------3--3----------------------------|
[ Tab from: http://www.guitartabs.cc/tabs/n/new_found_glory/broken_sound_tab.html ]
e|---3-------3--------------------------------------------------------|
B|-----3-------3-------3----------------------------------------------|
G|--------------------------------------------------------------------|
D|-2-----2-0-----0----------------------------------------------------|
A|-----------------33-----3-------------------------------------------|
E|--------------------------3--------------hold for a sec then repeat 
Verse   "And I can be the one"
e|--------------------------------------------------------------------|
B|--------------------------------------------------------------------|
G|-------9^---7^------5-----------------------------------------------|
D|-------9----7---5^- 5-----------------------------------------------|
A|-------7----5---5---3-----------------------------------------------|
E|----------------3---------------------------------------------------|

Chorus listen for the rhythm for the ^
"And my heart aches"
e|--------------------------------------------------------------------|
B|--------------------------------------------------------------------|
G|------4^----5^------------------------------------------------------|
D|------4-----5---5^--------------------------------------------------|
A|------2-----3---5---------------------------------------------------|
E|----------------3---------------------------------------------------|

Order
Intro - 9x 
Verse - 4x
Chorus - 4x
Verse - 4x


any questions email B_diluca@hotmail.com
=======================================================================

Comments