New Found Glory - Broken Sound Chords & Tabs

 

Broken Sound Chords & Tabs

New Found Glory Chords & Tabs

Version: 1 Type: Bass Tab 0 ratings
1 star 2 stars 3 stars 4 stars 5 stars
comments

Broken Sound Bass Tab

Artist:New Found Glory
Album:Nothing Gold Can Stay
Song:Broken Sound

Tuning:GDAE


0:31  1:05  1:43
[ Tab from: http://www.guitartabs.cc/tabs/n/new_found_glory/broken_sound_btab.html ]
G--------------------------------------------|
D--------------------------------------------|
A-2--3-----2--3-----2--3-----2--3------------|
E------5--------5--------5--------5----------|


1:22  1:55

G--------------------------------------------|
D-----------------------------5--------------|
A-7-5---2-7-5---2-7-5---2-7-5---5------------|
E-----2-------2-------2----------------------|
Comments