New Found Glory - Boy Crazy Chords & Tabs

 

Boy Crazy Chords & Tabs

New Found Glory Chords & Tabs

Version: 5 Type: Tab 0 ratings
1 star 2 stars 3 stars 4 stars 5 stars
comments

Boy Crazy Tab

* = Palm Mute
Intro and Verse are the same

E|-5-55-----------222--0000-----------------------------------|
A|-7-77-44-5555---444--2222-----------------------------------|
D|-7-77-66-7777---444--2222-----------------------------------|
G|------66-7777-----------------------------------------------|
B|------------------------------------------------------------|
e|------------------------------------------------------------|


Pre-Chorus
              Listen to song for strumming
[ Tab from: http://www.guitartabs.cc/tabs/n/new_found_glory/boy_crazy_tab_ver_5.html ]
E|------*-----*----*---5--------------------------------------|
A|----5-5---4-4--2-2---7---5----------------------------------|
D|----7-7---6-6--4-4---7---7----------------------------------|
G|----7-7---6-6--4-4-------7----------------------------------|
B|------------------------------------------------------------|
e|------------------------------------------------------------|

Chorus
E|-55555555---------------------------------------------------|
A|-77777777----55555555555------------------------------------|
D|-77777777----77777777777------------------------------------|
G|-------------77777777777------------------------------------|
B|------------------------------------------------------------|
e|------------------------------------------------------------|


Everything else is pretty much the same as the chorus. Please leave comments for any corrections
Comments