New Found Glory - Black And Blue Chords & Tabs

 

Black And Blue Chords & Tabs

New Found Glory Chords & Tabs

Version: 1 Type: Tab 0 ratings
1 star 2 stars 3 stars 4 stars 5 stars
comments

Black And Blue Tab

(intro)
e:---------------------------------------------------------
b:---------------------------------------------------------
g:-----------6-6-------------6-6---------------------------
d:--7-7-6----6-6-9----7-7-6--6-6-9-9------7-7-7--9-9-9-----
a:--7-7-6----4-4-9----7-7-6--4-4-9-9------7-7-7--9-9-9-----
E:--5-5-4--------7----5-5-4------7-7------5-5-5--7-7-7-----

"It's time to open your eyes..."
e:---------------------------------------------------------
b:---------------------------------------------------------
g:-----9---------------------------------------------------
d:-----9----9----7-----------------------------------------
a:-----7----9----7-----------------------------------------
E:----------7----5-----------------------------------------
[ Tab from: http://www.guitartabs.cc/tabs/n/new_found_glory/black_and_blue_tab.html ]
"Without you, ruining my life..."
e:---------------------------------------------------------
b:---------------------------------------------------------
g:--6-----6-----6------------9-----------------------------
d:--6--7--6--7--6--7---6--9--9-----------------------------
a:--4--7--4--7--4--7---6--9--7-----------------------------
E:-----5-----5-----5---4--7--------------------------------

Bridge
e:---------------------------------------------------------
b:---------------------------------------------------------
g:-----9---------------------------------------------------
d:-----9---7---9-------------------------------------------
a:-----7---7---9-------------------------------------------
E:---------5---7-------------------------------------------

That is the whole song. There is some tricky timing but just listen to the song while 
you play and you will figure out the strumming and how many times to play each part.
Comments