New Found Glory - Ballad For The Lost Romantics Chords & Tabs

 

Ballad For The Lost Romantics Chords & Tabs

New Found Glory Chords & Tabs

Version: 1 Type: Bass Tab 0 ratings
1 star 2 stars 3 stars 4 stars 5 stars
comments

Ballad For The Lost Romantics Bass Tab

New found glory
Ballard of the last romanitc 

Standard Tunning

Verse
G---------------------
D---------------------  X2
A---------------------
E-33333333-111111111--

Interlude 2
G-------------------
D-------------------  X6
A----------8-8-8-8--
E--8-8-8-8----------

Verse
G---------------------
D---------------------  X2
A---------------------
E-33333333-111111111--

Chorus
G--------------------------------------------------------------
D--------------------------------------------------------------
A-3--3---------33--3-----------5--3----------33--3----------5--
E-----0--01-11------0--01-11-1------0--01--11------0--01--11---

Verse
G---------------------
D---------------------  X2
A---------------------
E-33333333-111111111--

REST
[ Tab from: http://www.guitartabs.cc/tabs/n/new_found_glory/ballad_for_the_lost_romantics_btab.html ]
Verse
G---------------------
D---------------------  X2
A---------------------
E-33333333-111111111--

Chorus
G--------------------------------------------------------------
D--------------------------------------------------------------
A-3--3---------33--3-----------5--3----------33--3----------5--
E-----0--01-11------0--01-11-1------0--01--11------0--01--11---

Interlude 2
G-------------------
D-------------------  X4
A----------8-8-8-8--
E--8-8-8-8----------

REST

VERSE
G---------------------
D---------------------  X6
A---------------------
E-33333333-111111111--

Outro wait till guiar plays chorus once then play 3~
then wait till he plays it again then play the rest.
G--------------------------------------
D--------------------------------------(til it ends)
A3~-----------------3333---------------(10 or 11 times)
E------------------------0000-1111111--

End on
G----
D----
A-3--
E----
Comments