New Found Glory - Back That Ass Up Chords & Tabs

 

Back That Ass Up Chords & Tabs

New Found Glory Chords & Tabs

Version: 2 Type: Tab 0 ratings
1 star 2 stars 3 stars 4 stars 5 stars
comments

Back That Ass Up Tab

   
#----------------------------------PLEASE NOTE------------------------------#
#This file is the author's own work and represents their interpretation of the 
#song. You may only use this file for private study, scholarship, or research.
#---------------------------------------------------------------------------#

Author: Anthony Boyer (lyingfromyou118)
AIM: lyingfromyou118 or thelostfallchild
Email: lyingfromyou118@linkinpark.com

Duration Legend
---------------
W - whole; H - half; Q - quarter; E - 8th; + - note tied to previous
Letters over blank spaces indicate rests for those who don't know

Tablature Legend
----------------
 h   - hammer-on
 p   - pull-off
 b   - bend
 pb  - pre-bend
 r   - bend release (if no number after the r, then release immediately)
 /\  - slide into or out of (from/to "nowhere")
 s   - legato slide
 S   - shift slide
 !   - arpeggio down (quickly pick each note in chord downward)
----------------------------------------------------------------------------

Gtr I (E A D G B E) - 'Untitled'
Gtr II (E A D G B E) - 'Untitled'


 4/4
  Gtr I
   H +Q   Q   H +Q  Q    H +Q  Q   H +H    H +Q   Q    W
|-----------|---------|----------|-------|----------|-------|
|-!6-(6)----|---------|-!6-(6)---|-------|----------|-------|
|-!7-(7)--5-|-3-(3)-5-|-!7-(7)-5-|-3-(3)-|----------|-------|
|-!7-(7)--5-|-3-(3)-5-|-!7-(7)-5-|-3-(3)-|-5-(5)--5-|--7----|
|-!5-(5)--3-|-1-(1)-3-|-!5-(5)-3-|-1-(1)-|-5-(5)--5-|--7----|
|-----------|---------|----------|-------|-3-(3)--3-|--5----|


(Kick on Distortion Here)  
  
  Gtr I
  Q E Q E E E   Q E Q E E E   Q E Q E E E   Q E Q E E E    Q  E Q E E E
|-------------|-------------|-------------|-------------|---------------|
|-------------|-------------|-------------|-------------|---------------|
|-7---7---5---|-3---3---5---|-7---7---5---|-3---3---5---|--7----7---5---|
|-7---7---5---|-3---3---5---|-7---7---5---|-3---3---5---|--7----7---5---|
|-5---5---3---|-1---1---3---|-5---5---3---|-1---1---3---|--5----5---3---|
|-------------|-------------|-------------|-------------|---------------|
|
| Gtr II
|   W                 W             W             W        H  H
|-------------|-------------|-------------|-------------|---------------|
|-------------|-------------|-------------|-------------|---------------|
|-------------|-------------|-------------|-------------|-14------------|
|-------------|-------------|-------------|-------------|----12---------|
|-------------|-------------|-------------|-------------|---------------|
|-------------|-------------|-------------|-------------|---------------|
[ Tab from: http://www.guitartabs.cc/tabs/n/new_found_glory/back_that_ass_up_tab_ver_2.html ]
  Gtr I
  Q  E  Q  E  E  E       Q  E Q E E E
|---------------------|---------------|
|---------------------|---------------|
|-3-----3-----5-------|--7----7---5---|
|-3-----3-----5-------|--7----7---5---|
|-1-----1-----3-------|--5----5---3---|
|---------------------|---------------|
|
| Gtr II 
| Q  E  E  E  E  E  E    H  H
|---------------------|---------------|
|---------------------|---------------|
|---12-14-15-14-12-10-|-14------------|
|---------------------|----12---------|
|---------------------|---------------|
|---------------------|---------------|

  Gtr I
  Q  E  Q  E  Q         Q E Q E Q    Q  E  Q  E  Q
|---------------------|------------|---------------------|
|---------------------|------------|---------------------|
|-3-----3-----3-------|------------|---------------------|
|-3-----3-----3-------|-5---5---5--|-7-----7-----7-------|
|-1-----1-----1-------|-5---5---5--|-7-----7-----7-------|
|---------------------|-3---3---3--|-5-----5-----5-------|
|
| Gtr II
| Q  E  E  E  E  E  E   H   H        Q  E  E  E  E E  E
|---------------------|------------|---------------------|
|---------------------|------------|---------------------|
|---12-14-15-14-12-10-|-14s19------|---12-14-12-10-9-----|
|---------------------|------------|-----------------10--|
|---------------------|------------|---------------------|
|---------------------|------------|---------------------|

  Gtr I
  E E E E E E E E   E E E E E E E E
|-----------------|-----------------|
|-----------------|-----------------|
|-7-7-7-7-7-7-7-7-|-7-7-7-7-7-7-7-7-|
|-7-7-7-7-7-7-7-7-|-7-7-7-7-7-7-7-7-|
|-5-5-5-5-5-5-5-5-|-5-5-5-5-5-5-5-5-|
|-----------------|-----------------|
|
| Gtr II
|  W                         W
|------------------|-----------------|
|------------------|-----------------|
|------------------|-----------------|
|-12---------------|-----------------|
|------------------|-----------------|
|------------------|-----------------|

Okay, now, after that, the next verse is pretty much the same
except that Guitar 2 starts on the first measure of the verse.
If you listen to the song you will hear what I'm talking about.
Just try and find the rhythm, its pretty easy. At 2:22, you will 
epeat the intro, but without the arpeggios.


*****************************************************************************
* Generated using Power Tab Editor by Brad Larsen - http://powertab.guitarnetwork.org 
* This program is awesome, get it if you don't already have it. *
*****************************************************************************
Comments