New Found Glory - At Least Im Known For Something Chords & Tabs

 

At Least Im Known For Something Chords & Tabs

New Found Glory Chords & Tabs

Version: 1 Type: Bass Tab 0 ratings
1 star 2 stars 3 stars 4 stars 5 stars
comments

At Least Im Known For Something Bass Tab

   
NEW FOUND GLORY
AT LEAST I'M KNOWN FOR SOMETHING
CATALYST

STANDARD TUNING

INTRO/CHORUS
g[---------------------]
d[---------------------]
a[-22222-2-2-2-22222-2-]
E[---------------------]
INTRO/CHORUS ending
g[--------------]
d[--------------]
a[--------------]
E[-2~-22-2-5~~~-]
VERSE
g[---------][---------------]
d[---------][---------------]
a[-22222-2-][-22222-2-2~~~~-]
E[---------][---------------]
[ Tab from: http://www.guitartabs.cc/tabs/n/new_found_glory/at_least_im_known_for_something_btab.html ]
PRE-CHORUS
g[-------------------------------]
d[-------------------------------]
a[---------000-222---------2~~~~-]
E[-222-444---------222-444-------]

REPEAT INTRO/CHORUS
REPEAT VERSE
REPEAT PRE-CHORUS
REPEAT INTRO/CHORUS

NEXT PART
g[--------------------]
d[--------------------]
a[----------------0---]
E[-00-00-00-00-22---0-]

PRE-CHORUS only guitar

REPEAT CHORUS

END CHORUS VARIATION
g[-------------------------]
d[-------------------------]
a[---------7-9-7-6-7-6-4-6-]
E[-2~-22-2-----------------]
ENDING(x3)
g[------------]
d[------------]
a[-2-2-2-2-22-]
E[------------]
g[-------]
d[-------]
a[-------]
E[-2~-5X-]
Comments