New Found Glory - All Downhill From Here Chords & Tabs

 

All Downhill From Here Chords & Tabs

New Found Glory Chords & Tabs

Version: 6 Type: Tab 0 ratings
1 star 2 stars 3 stars 4 stars 5 stars
comments

All Downhill From Here Tab

   
-------------------------------------------------------------------------------
			     All Downhill From Here-New Found Glory
-------------------------------------------------------------------------------
Tabbed by:Toodles
Email:toodles12790@aol.com


Tuning:ebgDAE
LISTEN TO SONG FOR STRUMMING PATTERN
INTRO:
e|--------------------------|
B|--------------------------|
G|----6-7----------6-4--4-6-|
D|-4--6/7--7--7-7--6/4--4/6-|
A|-4--4-5--7--7-7--4-2--2-4-|
E|-2-------5--5-5-----------|

VERSE 1:"you're hiding something..." just this one chord
(you need an effects pedal to made it fade out and back in)
e|---|
B|---|
G|---|
D|-4-|
A|-4-|
E|-2-|

PRE-CHORUS: "i can tell you're going through the motions..."
e|------------|
B|------------|
G|----7-----4-|
D|-4--7--7--4-|
A|-4--5--7--2-|
E|-2-----5----|

CHORUS: "catalyst, you insit to pull me down..."
e|------------|
B|------------|
G|----7-------|
D|-7--7--4--2-|
A|-7--5--4--2-|
E|-5-----2--0-|

VERSE 2: "your good intentions slowly turn to bitterness..." (this verse is palm muted)
e|------------|
B|------------|
G|----7-----4-|
D|-4--7--7--4-|
A|-4--5--7--2-|
E|-2-----5----|

BRIDGE: "i can't belive you pulled it off again..." (its the same as the intro)
e|--------------------------|
B|--------------------------|
G|----6-7----------6-4--4-6-|
D|-4--6/7--7--7-7--6/4--4/6-|
A|-4--4-5--7--7-7--4-2--2-4-|
E|-2-------5--5-5-----------|


LYRICS:
[ Tab from: http://www.guitartabs.cc/tabs/n/new_found_glory/all_downhill_from_here_tab_ver_6.html ]
you're hiding something, cuz it's burning through your eyes
i try to get it out but all i hear from you are lies
i can tell you're going through the motions
figured you were writing out your part
once again we're playing off emotion
which one of us will burn until the end.

Catalyst you insist to pull me down, 
You contradict the fact that you still want me around, 
and its all downhill from here,
and its all downhill from here

Your good intentions slowly turn to bitterness
Reoccurring episodes with each and every kiss
i can tell you're going through the motions
figured you were writing out your part
once again we're playing off emotions
which one of us will burn until the end.

Catalyst you insist to pull me down, 
You contradict the fact that you still want me around, 
and its all downhill from here,
and all downhill from here

And I can't believe you pulled it off again
I'm running till it all sets in
You'll deny it till you're at your bitter end
i can tell you're going through the motions
figured you were writing out your part
once again we're playing off emotions
which one of us will burn until the end.

Catalyst you insist to pull me down, 
You contradict the fact that you still want me around, 
and its all downhill from here,
and its all downhill from here

(AND YOU KEEP PULLING ME DOWN)
Pulling me down pulling me down
You contradict the fact that you still want me around, 
and its all downhill from here,
and all downhill from here
Comments