New Found Glory - All Downhill From Here Chords & Tabs

 

All Downhill From Here Chords & Tabs

New Found Glory Chords & Tabs

Version: 5 Type: Tab 0 ratings
1 star 2 stars 3 stars 4 stars 5 stars
comments

All Downhill From Here Tab

   
"All Downhill From Here" by New Found Glory

Tabbed By: dylandevoe
E-mail: dylandevoe@hotmail.com

Intro: 1st Guitar
e|---------------------------|
B|---------------------------|
G|-----7---------------------|
D|-4-7-7-7--7-7--11-9--9-\-7-| x4
A|-4-7-5-7--7-7--11-9--9-\-7-|
E|-2-5---5--5-5--9--7--7-\-5-|

Intro: 2nd Guitar
e|--------------------------------|
B|--------------------------------|
G|-11-9-11-9--9-9-11-11-(13-/-14)-|
D|-11-9-11-9--9-9-11-11-(13-/-14)-| x3 (Playing Just Notes Is Easier)
A|-9--7-9--7--7-7-9--9--(11-/-12)-|
E|--------------------------------|

Verse:
e|---------------------------|
B|---------------------------|
G|-----7---------------------|
D|-4-7-7-7--7-7--11-9--9-\-7-| x4 (Scratchy/Spacey Effect)
A|-4-7-5-7--7-7--11-9--9-\-7-|
E|-2-5---5--5-5--9--7--7-\-5-|

Pre-Chorus:
e|----------------------------------------------------------------|
B|----------------------------------------------------------------|
G|-----7-7--------------7-7--------------7-7--------------7-7-----|
D|-4-4-7-7--7-7-9-9-4-4-7-7--7-7-9-9-4-4-7-7--7-7-9-9-4-4-7-7-9-9-|
A|-4-4-5-5--7-7-9-9-4-4-5-5--7-7-9-9-4-4-5-5--7-7-9-9-4-4-5-5-9-9-|
E|-2-2------5-5-7-7-2-2------5-5-7-7-2-2------5-5-7-7-2-2-----7-7-|

Chorus:
e|---------------------------------|
B|---------------------------------|
G|---------7-7-7-7-----------------|
D|-7-7-7-7-7-7-7-7-4-4-4-4-2-2-2-2-| x4
A|-7-7-7-7-5-5-5-5-4-4-4-4-2-2-2-2-|
E|-5-5-5-5---------2-2-2-2-0-0-0-0-|

e|-------------|
B|-------------|
G|-------------|
D|-xxxx2-xxxx2-|
A|-xxxx2-xxxx2-|
E|-xxxx0-xxxx0-|

Intro: 1st Guitar
e|---------------------------|
B|---------------------------|
G|-----7---------------------|
D|-4-7-7-7--7-7--11-9--9-\-7-| x2
A|-4-7-5-7--7-7--11-9--9-\-7-|
E|-2-5---5--5-5--9--7--7-\-5-|

Intro: 2nd Guitar
e|--------------------------------|
B|--------------------------------|
G|-11-9-11-9--9-9-11-11-(13-/-14)-|
D|-11-9-11-9--9-9-11-11-(13-/-14)-| x1
A|-9--7-9--7--7-7-9--9--(11-/-12)-|
E|--------------------------------|
[ Tab from: http://www.guitartabs.cc/tabs/n/new_found_glory/all_downhill_from_here_tab_ver_5.html ]
Pre-Chorus:
e|----------------------------------------------------------------|
B|----------------------------------------------------------------|
G|-----7-7--------------7-7--------------7-7--------------7-7-----|
D|-4-4-7-7--7-7-9-9-4-4-7-7--7-7-9-9-4-4-7-7--7-7-9-9-4-4-7-7-9-9-|
A|-4-4-5-5--7-7-9-9-4-4-5-5--7-7-9-9-4-4-5-5--7-7-9-9-4-4-5-5-9-9-|
E|-2-2------5-5-7-7-2-2------5-5-7-7-2-2------5-5-7-7-2-2-----7-7-|

Chorus:
e|---------------------------------|
B|---------------------------------|
G|---------7-7-7-7-----------------|
D|-7-7-7-7-7-7-7-7-4-4-4-4-2-2-2-2-| x4
A|-7-7-7-7-5-5-5-5-4-4-4-4-2-2-2-2-|
E|-5-5-5-5---------2-2-2-2-0-0-0-0-|

e|-------------|
B|-------------|
G|-------------|
D|-xxxx2-xxxx2-|
A|-xxxx2-xxxx2-|
E|-xxxx0-xxxx0-|

Bridge:
e|----------------------|
B|----------------------|
G|-----7----------------|
D|-4-7-7-7--7-7--11-9-~-| x6 (6th Time Doesn't Play Last Two Chords)
A|-4-7-5-7--7-7--11-9-~-|
E|-2-5---5--5-5--9--7-~-|

Pre-Chorus:
e|----------------------------------------------------------------|
B|----------------------------------------------------------------|
G|-----7-7--------------7-7--------------7-7--------------7-7-----|
D|-4-4-7-7--7-7-9-9-4-4-7-7--7-7-9-9-4-4-7-7--7-7-9-9-4-4-7-7-9-9-|
A|-4-4-5-5--7-7-9-9-4-4-5-5--7-7-9-9-4-4-5-5--7-7-9-9-4-4-5-5-9-9-|
E|-2-2------5-5-7-7-2-2------5-5-7-7-2-2------5-5-7-7-2-2-----7-7-|

Chorus:
e|---------------------------------|
B|---------------------------------|
G|---------7-7-7-7-----------------|
D|-7-7-7-7-7-7-7-7-4-4-4-4-2-2-2-2-| x4 (Acoustic)
A|-7-7-7-7-5-5-5-5-4-4-4-4-2-2-2-2-|
E|-5-5-5-5---------2-2-2-2-0-0-0-0-|

e|-------------|
B|-------------|
G|-------------|
D|-xxxx2-xxxx2-| (Electric)
A|-xxxx2-xxxx2-|
E|-xxxx0-xxxx0-|

Chorus:
e|---------------------------------|
B|---------------------------------|
G|---------7-7-7-7-----------------|
D|-7-7-7-7-7-7-7-7-4-4-4-4-2-2-2-2-| x4
A|-7-7-7-7-5-5-5-5-4-4-4-4-2-2-2-2-|
E|-5-5-5-5---------2-2-2-2-0-0-0-0-|

e|-------------------------|
B|-------------------------|
G|-------------------------|
D|-xxxx2-xxxx2-xxxx2-xxxx2-|
A|-xxxx2-xxxx2-xxxx2-xxxx2-|
E|-xxxx0-xxxx0-xxxx0-xxxx0-|

Outro:
e|-----------------------------------------|
B|-----------------------------------------|
G|-----7--------------------------7--------|
D|-4-7-7-7--7-7--11-9--9-\-7--4-7-7-7--7-7-|
A|-4-7-5-7--7-7--11-9--9-\-7--4-7-5-7--7-7-|
E|-2-5---5--5-5--9--7--7-\-5--2-5---5--5-5-|

"Catalyst" Comes Out May 18th!
Comments