New Found Glory - All Downhill From Here Chords & Tabs

 

All Downhill From Here Chords & Tabs

New Found Glory Chords & Tabs

Version: 2 Type: Tab 0 ratings
1 star 2 stars 3 stars 4 stars 5 stars
comments

All Downhill From Here Tab

~New Found Glory - All Downhill From Here~
This is their new song off of their new cd "Catalyst"
Drop D tuning

x - palm mute

Intro--Guitar 1
------------------------------------------------------------------------
--------2-3-------2---------------2-3---------2-------2-----------------
-------------222----4-4-2-------------222-----4-4-----------------------x2
-----4--------------------------4---------------------------------------
------------------------------------------------------------------------
------------------------------------------------------------------------

Intro--Guitar 2
-------------------------------------------------------------------------
-------------------------------------------------------------------------
-------22----------------------------------------------------------------
----4--22---0-00--2--0-0--2----------------------------------------------x4
----4--00---0-00--2--0-0--2----------------------------------------------
----4-------0-00--2--0-0--2----------------------------------------------
[ Tab from: http://www.guitartabs.cc/tabs/n/new_found_glory/all_downhill_from_here_tab_ver_2.html ]
Verse--Guitar 1 only (palm mute all w/ flanger effect)
------------------------------------------------------------------
------------------------------------------------------------------
------------------------------------------------------------------
---4444444444444444---------0000000000000000----------------------x2
---4444444444444444---------0000000000000000----------------------
---4444444444444444---------0000000000000000----------------------

Prechorus--Both guitars (and I can tell....)
------------------------------------------------------------------------
------------------------------------------------------------------------
--------------------2222------------------------------------------------
---44444444---2222--2222----------------------------------------------x3
---44444444---0000--2222------------------------------------------------
---44444444---------2222------------------------------------------------

(which one of us.....)
-------------------------------------------------------------------------
-----------------------------------------------------(leadguitar)--------
------------------------------------------------------7777---------------
-----44444444----0000---------------------44444444----7777---------------
-----44444444----0000---------------------44444444----5555---------------
-----44444444----0000---------------------44444444-----------------------

Chorus--Both guitars
---------------------------------------------------------------------------
---------------------------------------------------------------------------
---2-----------------------------------------------------(at end of chorus)
---2--0---7---2----------------------------------------xxxx-2--xxxx-2---- x4
---0--0---4---2----------------------------------------xxxx-2--xxxx-2------
------0---4---2----------------------------------------xxxx-2--xxxx-2------

Back to intro

questions or comments send to coolguy2236@hotmail.com   Thanks!
Comments