New Found Glory - All Downhill From Here Chords & Tabs

 

All Downhill From Here Chords & Tabs

New Found Glory Chords & Tabs

Version: 1 Type: Tab 1 rating
1 star 2 stars 3 stars 4 stars 5 stars
comments

All Downhill From Here Tab

Title: All downhill from here
Artist: New Found Glory
Album: Catalyst

   (intro)(x4)
e|------------------------------|
B|------------------------------|
G|----6--7--4--------6--4--4--6-|
D|-4--6--7--4--7--7--6--4--4--6-|
A|-4--4--5--2--7--7--4--2--2--4-|
E|-2-----------5--5-------------|
[ Tab from: http://www.guitartabs.cc/tabs/n/new_found_glory/all_downhill_from_here_tab.html ]
   (verse)(x4 with phlange) (x4 with distortion)
e|------------------------------------|
B|------------------------------------|
G|----------7-7-7-7-----------4-4-4-4-|
D|-4-4-4-4--7-7-7-7--7-7-7-7--4-4-4-4-|
A|-4-4-4-4--5-5-5-5--7-7-7-7--2-2-2-2-|
E|-2-2-2-2-----------5-5-5-5----------|

   (Chorus)(X4)
e|------------------------------------|
B|------------------------------------|
G|----------7-7-7-7-------------------|
D|-7-7-7-7--7-7-7-7--4-4-4-4--2-2-2-2-|
A|-7-7-7-7--5-5-5-5--4-4-4-4--2-2-2-2-|
E|-5-5-5-5-----------2-2-2-2--0-0-0-0-|


Those are the main parts, aside from the small riff during the chorus.  email any
questions to rjo2929@hotmail.com  
Comments