New Found Glory - All Down Hill From Here Chords & Tabs

 

All Down Hill From Here Chords & Tabs

New Found Glory Chords & Tabs

Version: 1 Type: Tab 1 rating
1 star 2 stars 3 stars 4 stars 5 stars
comments

All Down Hill From Here Tab

All down hill from here
By: New Found Glory
Tabbed by Joe Schwartz

This is a sweet song, a got most of it tabbed but i don't have the solo's 
or any of that stuff

------------------------------------------------------------- X4
-------------------------------------------------------------
-----6/7--2-22--6/4--2---------------------------------------
--4--6/7--2-22--6/4--2---------------------------------------
--4--4/5--0-00--4/2--0---------------------------------------
--2----------------------------------------------------------
[ Tab from: http://www.guitartabs.cc/tabs/n/new_found_glory/all_down_hill_from_here_tab.html ]
Verse
------------------------------------------------------------- X4
-------------------------------------------------------------
--------7777--2222--4444-------------------------------------
--4444--7777--2222--4444-------------------------------------
--4444--5555--0000--2222-------------------------------------
--2222-------------------------------------------------------
PM...........................................................

Pre Chorus
------------------------------------------------------------- X4
-------------------------------------------------------------
--------7777--2222--4444-------------------------------------
--4444--7777--2222--4444-------------------------------------
--4444--5555--0000--2222-------------------------------------
--2222-------------------------------------------------------

Chorus
------------------------------------------------------------- X4
-------------------------------------------------------------
--------7777-------------------------------------------------
--7777--7777--4444--2222-------------------------------------
--7777--5555--4444--2222-------------------------------------
--5555--------2222--0000-------------------------------------

PM= Palm Mute
/ = Slide

thats it other than the solo's, have fun

later!

Comments