New Found Glory - All About Her Chords & Tabs

 

All About Her Chords & Tabs

New Found Glory Chords & Tabs

Version: 3 Type: Bass Tab 0 ratings
1 star 2 stars 3 stars 4 stars 5 stars
comments

All About Her Bass Tab

New Found Glory
All About Her

Transcribed By: Ryan Huntsman  (IbanezBassMX)
Email: Ryan82184@aol.com

Standard Tunning


Verse  (wait for guitar to play once)
G-------------------------------------|
D-------------------------------------|  X5
A-------------------------------------|
E-00-00-00-77-77-77-99-99-99-55-55-7--|

Pre-Chorus:  so forget all...
G-------------------------|
D-------------------------|  X2
A-------------------------|
E-0-0--7-5-5-7-5-5-9-7-7--|

Verse
G-------------------------------------|
D-------------------------------------|  X8
A-------------------------------------|
E-00-00-00-77-77-77-99-99-99-55-55-7--|

Pre-Chorus:  so forget all...
G-------------------------|
D-------------------------|  X2
A-------------------------|
E-0-0--7-5-5-7-5-5-9-7-7--|
[ Tab from: http://www.guitartabs.cc/tabs/n/new_found_glory/all_about_her_btab_ver_3.html ]
Verse
G-------------------------------------|
D-------------------------------------|  X4
A-------------------------------------|
E-00-00-00-77-77-77-99-99-99-55-55-7--|

Interlude  There is no other way...
G-------------------------------|
D-------------------------------|
A-------------------------------|
E-0-0-0--5-5-5-/-9-9-9-/-5-5-5--|

second time
G-------------------------------------|
D-------------------------------------|
A-------------------------------------|
E-0-0-0--5-5-5-/-9-9-9-/-5-7--0~--0~--|

Verse
G-------------------------------------|
D-------------------------------------|  X7
A-------------------------------------|
E-00-00-00-77-77-77-99-99-99-55-55-7--|

Outro
G-----|
D-----|
A-----|
E-0~--|

There ya go, this song is fun to play once you get the timing down.
Please rate this tab, Thanks.
Comments