New Car Smell - Song About You Chords & Tabs

 

Song About You Chords & Tabs

New Car Smell Chords & Tabs

Version: 1 Type: Tab 0 ratings
1 star 2 stars 3 stars 4 stars 5 stars
comments

Song About You Tab

By:New Car Smell
title: Song About You 
tuning: standard

Inro:
e|-------|-------------------------------------------|2x
B|-------|-------------------------------------------|
G|-------|-777-7-777---------------------------------|
D|-xx-xx-|-777-7-777-555-5-555--999-9-999--555-5-555-|
A|-xx-xx-|-555-5-555-555-5-555--999-9-999--555-5-555-|
E|-xx-xx-|-----------333-3-333--777-7-777--333-3-333-|
[ Tab from: http://www.guitartabs.cc/tabs/n/new_car_smell/song_about_you_tab.html ]
verse:
e|----------------------------------------------|4x
B|----------------------------------------------|
G|----------------------------------------------|
D|--77-7-77-7--99-9-99-9--55-5-55-5--77-7-77-7--|
A|--55-5-55-5--99-9-99-9--55-5-55-5--77-7-77-7--|
E|-------------77-7-77-7--33-3-33-3--55-5-55-5--|
p/m --   --    --   --    --   --    --   --

corus:   
e|-----------------------------------------------------|-------------------|2x
B|-----------------------------------------------------|-------------------|
G|--777-77-77-7----------------------------------------|-----------------7-|
D|--777-77-77-7--555-55-55-5--999-99-99-9--555-55-55-5-|555-55-55-5--xx--7-|
A|--555-55-55-5--555-55-55-5--999-99-99-9--555-55-55-5-|555-55-55-5--xx--5-|
E|---------------333-33-33-3--777-77-77-7--333-33-33-3-|333-33-33-3--xx----|

solo:
Same as the corus but guitar 2 stops playing and guitar 1 switches
out of distorition, plays through corus once.

Thats it, if you get the struming right its a piece of punkin pie.
Comments