New Car Smell - Behind The Lamp Chords & Tabs

 

Behind The Lamp Chords & Tabs

New Car Smell Chords & Tabs

Version: 2 Type: Tab 0 ratings
1 star 2 stars 3 stars 4 stars 5 stars
comments

Behind The Lamp Tab

By:New Car Smell
Song: Behind the Lamp 
tuning  ebgdae

Inro:
e|---------------------------------------|2x
B|---------------------------------------|
G|---------------------------------------|
D|------9--10---9---7----h9---10---9---7-|
A|----77--77--77--77---77---77---77--77--|
E|---------------------------------------|
p.m.  --  --  --  --   --   -

e|-----------------------------|2x
B|-----------------------------|
G|-----9----10----9----7-------|
D|-----9----10----9----7-------|
A|--77-7-77-7--77-7-77-7-------|
E|-----------------------------|
p.m.--   --    --   --   


corus: 
[ Tab from: http://www.guitartabs.cc/tabs/n/new_car_smell/behind_the_lamp_tab_ver_2.html ]
e|----------------------------------------------------|
B|----------------------------------------------------|
G|--9999-999---10101010-101010---7777-777---9999-xxx--|
D|--9999-999---10101010-101010---7777-777---9999-xxx--|
A|--7777-777----8-8-8-8--8-8-8---5555-555---7777-xxx--|
E|----------------------------------------------------|

*=8x 
e|-----------------------------|------------|2x
B|-----------------------------|------------|
G|--9999-xx9-\-10*-/--7*-\--9*-|-xxx---9-9--|
D|--9999-xx9-\-10--/--7--\--9--|-xxx--9--9--|
A|--7777-xx7-\--8--/--5--\--7--|-xxx-7---7--|
E|-----------------------------|------------|

verse:   
e|------------------------------------|2x
B|------------------------------------|
G|------------------------------------|
D|------7-9------10-9-----7-9-----9-7-|
A|--777-----777-------777-----777-----|
E|------------------------------------|

this is 100% correct.



Comments