New Car Smell - Behind The Lamp Chords & Tabs

 

Behind The Lamp Chords & Tabs

New Car Smell Chords & Tabs

Version: 1 Type: Tab 0 ratings
1 star 2 stars 3 stars 4 stars 5 stars
comments

Behind The Lamp Tab

By:New Car Smell
Song: Behind the Lamp
Standard tuning

Inro:
e|---------------------------------------|2x
B|---------------------------------------|
G|---------------------------------------|
D|------9--9----10--10----9--9----7--7---|
A|----77-77---77--77----77-77---77-77----|
E|---------------------------------------|
p.m.  -- --   --  --    -- --   -- --

e|--------------------------------------------|2x
B|--------------------------------------------|
G|-----9----9----10---10---9----9----7----7---|
D|-----9----9----10---10---9----9----7----7---|
A|--77-7-77-7-77-7-77-7-77-7-77-7-77-7-77-7---|
E|--------------------------------------------|
p.m.--   --   --   --   --   --   --   --


corus: 
[ Tab from: http://www.guitartabs.cc/tabs/n/new_car_smell/behind_the_lamp_tab.html ]
e|----------------------------------------------------|-----------|
B|----------------------------------------------------|-----------|
G|--9999-999---10101010-101010---7777-777---9999-999--|--9--9--9--|
D|--9999-999---10101010-101010---7777-777---9999-999--|--9--9--9--|
A|--7777-777----8-8-8-8--8-8-8---5555-555---7777-777--|--7--7--7--|
E|----------------------------------------------------|-----------|

verse: 
e|----------------------------------------------------------|
B|----------------------------------------------------------|
G|----------------------------------------------------------|
D|-----------14------------15------------12-----------14----|
A|-----------14------------15------------12-----------14----|
E|--12121212-12---13131313-13---10101010-10--12121212-12----|
p.m.--------      --------      --------     --------   

otro: start with corus then 2nd guitar fill in with the into
Comments