New Car Smell - All Alone Chords & Tabs

 

All Alone Chords & Tabs

New Car Smell Chords & Tabs

Version: 1 Type: Tab 0 ratings
1 star 2 stars 3 stars 4 stars 5 stars
comments

All Alone Tab

New Car Smell
All Alone
standard tuning

intro
guitar 1
clean
e----------------------------------
b----------------------------------
g------9-------8-------9-------8--- 10x then 2x with distorsion
d----9---9---9---9---9---9---9---9-  
a--7-------7-------7-------7-------
E----------------------------------

intro
guitar 2
distorsion 
e----------------------------------
b----------------------------------
g--9------------------------------- 2x
d--9-----11-----7-----9------------
a--7-----11-----7-----9------------
E--------9------5-----7------------
[ Tab from: http://www.guitartabs.cc/tabs/n/new_car_smell/all_alone_tab.html ]
verse:
e----------------------------------
b----------------------------------
g--77-7---------------------------- 8x
d--77-7--77-7--55-5--77-7----------
a--55-5--77-7--55-5--77-7----------
E--------55-5--33-3--55-5----------
 pm--    --    --    --


corus:
e----------------------------------
b----------------------------------
g--999----------------------------- 4x
d--999--999--777-------------------
a--777--999--777-------------------
E-------777--555-------------------


e------------------2x-----------------------2x--------------2x
b------------------------------------------------------------
g------9-------8----------11---------10----------7-------6---
d----9---9---9---9-----11----11---11----11-----7---7---7---7-
a--7-------7---------9----------9------------5-------5-------
E------------------------------------------------------------
Comments