New Bomb Turks - Defiled Chords & Tabs

 

Defiled Chords & Tabs

New Bomb Turks Chords & Tabs

Version: 1 Type: Tab 0 ratings
1 star 2 stars 3 stars 4 stars 5 stars
comments

Defiled Tab

   
new bomb turks-defiled
from 'at ropes end'
tabber: rootz

~ let ring
\\\ pickslide

intro

e|--------------------------------------------|
B|--------------------------------------------|
G|--------------------------------------------|
D|-6-6-6-9-6--4~------------------------------|
A|-6-6-6-9-6--4~------------------------------|
E|-4-4-4-7-4--2~------------------------------|

verse (a bit different)
[ Tab from: http://www.guitartabs.cc/tabs/n/new_bomb_turks/defiled_tab.html ]
e|-------------------------------------------|
B|-------------------------------------------|
G|-------------------------------------------|
D|-6-5--8-9-6--4~----------------------------|
A|-6-5--8-9-6--4~----------------------------|
E|-4-3--6-7-4--2~----------------------------|

chorus

e|-------------------------------------------|
B|-------------------------------------------|
G|-------------------------------------------|
D|-10-8--11-7--5~----------------------------|
A|-10-8--11-7--5~----------------------------|
E|--8-6---9-5--3~----------------------------|

silent part with trumpet solo
ends with

e|-------------------------------------------|
B|-------------------------------------------|
G|-------------------------------------------|
D|-7~--7-7-7-7\\\----------------------------|
A|-7~--7-7-7-7-------------------------------|
E|-5~--5-5-5-5-------------------------------|
Comments