New Amsterdams - Stay On The Phone Chords & Tabs

 

Stay On The Phone Chords & Tabs

New Amsterdams Chords & Tabs

Version: 2 Type: Tab 0 ratings
1 star 2 stars 3 stars 4 stars 5 stars
comments

Stay On The Phone Tab

Capo 2 (i got this fom the new amsterdams site)

Verse
e|---0-00---0-00----0-00---0-00----0-00---0-00-|--0-00---0-00-|
B|---5-55---5-55----5-55---5-55----5-55---5-55----5-55---5-55-|
G|---4-44---4-44----4-44---4-44----4-44---4-44----4-44---4-44-|
D|---2-22---2-22----2-22---2-22----2-22---2-22----2-22---2-22-|
A|-4------4-------3------3-------2------2-------1------1------|
E|------------------------------------------------------------|

e|---0-00---0-00----0-00---0-00----0-00---0-00----0-00---0-00-|
B|---5-55---5-55----5-55---5-55----5-55---5-55----5-55---5-55-|
G|---4-44---4-44----4-44---4-44----4-44---4-44----4-44---4-44-|
D|---2-22---2-22----2-22---2-22----2-22---2-22----2-22---2-22-|
A|-0------0----------------------0------0-------2------3------|
E|----------------4------4------------------------------------|
[ Tab from: http://www.guitartabs.cc/tabs/n/new_amsterdams/stay_on_the_phone_tab_ver_2.html ]
Chorus
e|---0-00---0-00---4-44---4-44----0-00---0-00----4-44---4-44-|
B|---0-00---0-00---0-00---0-00----0-00---0-00----0-00---0-00-|
G|---4-44---4-44---4-44---4-44----4-44---4-44----4-44---4-44-|
D|---2-22---2-22---2-22---2-22----2-22---2-22----2-22---2-22-|
A|-4------4------2------2-------0------0---------------------|
E|---------------------------------------------4------4------|

e|---0-00---0-00----0-00---0-00----0-00---0-00----4-44---4-44-|
B|---0-00---0-00----0-00---0-00----0-00---0-00----0-00---0-00-|
G|---4-44---4-44----4-44---4-44----4-44---4-44----4-44---4-44-|
D|---2-22---2-22----2-22---2-22----2-22---2-22----2-22---2-22-|
A|-0------0-------2------2-------4------4-------2------2------|
E|------------------------------------------------------------|

e|---0-00---0-00----4-44---4-44----0-00---0-00----0-00---0-00-|
B|---0-00---0-00----0-00---0-00----0-00---0-00----0-00---0-00-|
G|---4-44---4-44----4-44---4-44----4-44---4-44----4-44---4-44-|
D|---2-22---2-22----2-22---2-22----2-22---2-22----2-22---2-22-|
A|-0------0----------------------0------0-------2------3------|
E|----------------4------4------------------------------------|
Comments