New Amsterdams - Picture In The Paper Chords & Tabs

 

Picture In The Paper Chords & Tabs

New Amsterdams Chords & Tabs

Version: 1 Type: Tab 0 ratings
1 star 2 stars 3 stars 4 stars 5 stars
comments

Picture In The Paper Tab

   
All chords relative to Capo on 3.

D   
I don't want
                  G
A picture in the paper
        D
I just want
                  G
A minute of your time
  D
At a point 
                G
Appreciate an answer
G  Fm7 (200033) Em
Any token
G    Fm7      Em       G  Fm7 Em, G Fm7 Em D
Would suit me fine

D
I won't ask  
                    G
A question you can't answer
     D                           G
Like, "Do you remember All Shook Down?"
D
At one time
                       G
It was your favorite record
G   Fm7    Em
But now it's broken
G  Fm7    Em
And not around
G    Fm7     Em 
Baby I broke it
G        Fm7  Em
Broke me down

G        A 
Strain of the show
D          G
Takes its toll
G          A
But you don't
D
Wanna know
[ Tab from: http://www.guitartabs.cc/tabs/n/new_amsterdams/picture_in_the_paper_tab.html ]
Solo
e|-------------------------------------------------------------------------|
B|-------------------------------------------------------------------------|
G|-------------------------------------------------------------------------|
D|-7-7-9-7-5-4-2---7-4-5-4-2-----7-7-9-7-5-4-2-----------4---------4-------|
A|---------------5-----------5-2----------------5--5-5-2---5-5-5-2---5-----|
E|-------------------------------------------------------------------------|

e|-------------------------------------------------------------------------|
B|-------------------------------------------------------------------------|
G|-------------------------------------------------------------------------|
D|-------4----5--------4----5--4-------------------------------------------|
A|-5-5-2----5----5-5-2---5-------------------------------------------------|
E|-------------------------------------------------------------------------|

D                      G
Maybe I don't know what I'm asking
        D
This is not
                       G
The place or time to speak
       D                      G
It's possible piano may be drinking
G  Fm7    Em
But it's not me
 G  Fm7   Em
Couldn't be
  G   Fm7  Em
I'm sincere
  G  Fm7  Em
As I can be

G        A 
Strain of the show
D          G
Takes its toll
G          A
But you don't
D
Wanna know
Comments