New Amsterdams - I Wont Run Away Chords & Tabs

 

I Wont Run Away Chords & Tabs

New Amsterdams Chords & Tabs

Version: 1 Type: Tab 0 ratings
1 star 2 stars 3 stars 4 stars 5 stars
comments

I Wont Run Away Tab

Intro

e-------------------------------------------------------------|
B-----------1---------0h1----------1--------------------------|
G---0-------------------------------------------0-------------|
D-----2--------2----------2-------------2-------------2-------|
A-3------3--------3----------3-------------3------------------|
E-------------------------------------------------------------|


e-------------------------------------------------------------|
B--------------1----------0h1------------1--------------------|
G----0----------------------------------------------0---------|
D------2----------2------------2------------2-----------2-----|
A-0--------0---------0------------0------------0--------------|
E-------------------------------------------------------------|

(Not too sure about this part, he plays it different later, so I suppose
this is the 'intro' version... Pretty close... Just act like you know what
you're doing.)
e---------------------------------------------------------------|
B-----3-----------------3---------------5p3--------------3h5----|
G---------0----------------0------------------0-----------------|
D-----------0-----------------0------------------0--------------|
A---------------------------------------------------------------|
E--3--------------3----------------3------------------3---------|


e---------------------8-----------------------------8------------|
B-------8----------------8--------------8--------------8---------|
G---------0----------------0--------0------0--------------0------|
D----------------------------------------------------------------|
A-8----------8-----------------8---------------8-----------------|
E----------------------------------------------------------------|


ooooooooooooooooooooooooooooooooooooooooooooooooooooooooooooooooooooooooooooo


e------------------------------------------------------------------|
B-----------1---------0h1----------1-------------------------------|
G---0-------------------------------------------0------------------|
D-----2--------2----------2-------------2------------2-------------|
A-3------3--------3----------3-------------3-----------------------|
E------------------------------------------------------------------|
"Walk away the day I must leave you behind..."

e-------------------------------------------------------------------|
B--------------1----------0h1------------1--------------------------|
G----0----------------------------------------------0---------------|
D------2----------2------------2------------2-----------2-----------|
A-0--------0---------0------------0------------0--------------------|
E-------------------------------------------------------------------|


(Something like this...)
e------------------------------------------------------------------------|
B-----3--------------------5---------------3-----------------5-----------|
G-------0--------------------0----------------0----------------0---------|
D----------0-------------------0----------------0----------------0-------|
A------------------------------------------------------------------------|
E-3-----------3--------------------3------------------3--------------3---|
"Like we've waltzed around the world so many times..."

e---------------------8-----------------------------8-------------|
B-------8----------------8--------------8--------------8----------|
G---------0----------------0--------0------0--------------0-------|
D-----------------------------------------------------------------|
A-8----------8-----------------8---------------8------------------|
E-----------------------------------------------------------------|

e-----------------------------------------------------------------|
B-----------1---------0h1----------1------------------------------|
G---0-------------------------------------------0-----------------|
D-----2--------2----------2-------------2------------2------------|
A-3------3--------3----------3-------------3----------------------|
E-----------------------------------------------------------------|
"We remind the time, the motions will repeat..."


e-----------------------------------------------------------------|
B--------------1----------0h1------------1------------------------|
G----0----------------------------------------------0-------------|
D------2----------2------------2------------2-----------2---------|
A-0--------0---------0------------0------------0------------------|
E-----------------------------------------------------------------|
[ Tab from: http://www.guitartabs.cc/tabs/n/new_amsterdams/i_wont_run_away_tab.html ]
e------------------------------------------------------------------------|
B---3--------------------5----------------------3--------------5---------|
G------0--------------------0----------------------0-------------0-------|
D--------0---------------------0---------------------0-------------0-----|
A------------------------------------------------------------------------|
E-3------------3--------------------3------------------3--------------3--|
"But the distance doesn't finalize defeat..."


                                                  (Slight pause here)
e--------------8------------------------------------------------|
B----8-----------8------------8-----------8---------------------|
G------0------------0-------0---0-----------0-------------------|
D---------------------------------------------------------------|
A-8------8------------8-------------8---------------------------|
E---------------------------------------------------------------|

e---------------8----------------------------8------------------|
B----8--------------8-------------8-------------8---------------|
G-------0--------------0-------0----0-------------0-------------|
D---------------------------------------------------------------|
A-8--------8--------------8--------------8----------------------|
E---------------------------------------------------------------|


e----------------8----------------------------8-----------------|
B-----8-------------8-------------8-------------8---------------|
G--------0-------------0-------0-----0------------0-------------|
D---------------------------------------------------------------|
A-7----------7------------7---------------7---------------------|
E---------------------------------------------------------------|
"So it goes..."


e----------------8----------------------------8-----------------|
B----8-------------8-------------8--------------8---------------|
G-------0------------0--------0-----0--------------0------------|
D---------------------------------------------------------------|
A-8--------8--------------8---------------8---------------------|
E---------------------------------------------------------------|


e--------------------------------------------------------------------------|
B-----8---------8----------5----------3---------1----1----------3----3-----|
G---0---0-----0---0------0---0------0---0-----0--0----0-------0---0----0---|
D--------------------------------------------------------------------------|
A--------------------------------------------------------------------------|
E-8--------7---------5----------3----------1-------1-----1---3------3------|
"There's a wait that never seems to let it go..."


e------------------------------------------------------------------------|
B-----8--------8---------5---------3-------1----1----------3-----3-------|
G---0---0----0---0-----0---0-----0---0----0--0----0-------0---0----0-----|
D------------------------------------------------------------------------|
A------------------------------------------------------------------------|
E-8-------7---------5---------3---------1-----1----1----3-------3--------|
"And I'm passing through the atmosphere like smoke..."


e------------------------------------------------------------------------|
B-----8---------8----------5---------3-------1----1----------3----3------|
G---0---0-----0---0-----0----0-----0---0----0--0----0------0---0----0----|
D------------------------------------------------------------------------|
A------------------------------------------------------------------------|
E-8--------7---------5-----------3--------1-----1----1----3------3-------|


xxxxxxxxxxxxxxxxxxxxxxxxxxxxxxxxxxxxxxxxxxxxxxxxxxxxxxxxxxxxxxxxxxxxxxxxxxxxx

Then just repeat and you have the entire song! (the final chord is C)

Here are the lyrics if you want em':

"Walk away the day, must leave you behind,
like we waltzed around the world so many times.
We remind the time when motions will repeat.
But the distance doesn't finalize defeat.

So it goes.
There's a way that never seems to let it go.
And I'm passing through the atmosphere like smoke.

On the way the day, afraid from town to town.
Every anecdote I live gets written down.
Every letter ever sent her does remind,
that our memories are always on my mind.

So it stays.
Wait for the world to stop and I won't run away.
Wait for the world to stop and I won't run away.
Wait for the world to stop and I won't run away.
At least not today."


Ok, as you may have guessed, I'm still not 100% sure about this tab, but
hey, it's a start. I AM sure a lot of it is right, and at the very least,
the chord shapes are right. So feel free to listen to the song and screw around with the 
you'll probably find yourself playing it right eventually (same thing happens to me, 
I forget what I did and
unfortunately can't tab it out). Enjoy.
                                                      -Plea for Peace!-

Questions? Comments? Concerns? Fan mail?! Shoot me a new one at alienpoopska@spankthedonkey.com.
Comments