Nevermore - Tomorrow Turned Into Yesterday Chords & Tabs

 

Tomorrow Turned Into Yesterday Chords & Tabs

Nevermore Chords & Tabs

Version: 2 Type: Tab 0 ratings
1 star 2 stars 3 stars 4 stars 5 stars
comments

Tomorrow Turned Into Yesterday Tab

   
-------------------------------------------------------------------------------
        Tomorrow Turned Into Yesterday solo - Nevermore
-------------------------------------------------------------------------------
Tabbed by: Big Bear

Legend - | /  slide up
         | \  slide down
         | h  hammer-on
         | p  pull-off
         | ~  vibrato
         | +  harmonic
         | x  Mute note

This solo isn't nearly as hard as a lot of Nevermore solos, but still its a bit tricky.
Take your time and get all the parts down exact before speeding up. Happy shredding !

Tuning: 7 String tuned to A#, but can also be played on a 6 string tuned to Eb
                                                   p  p


e|-15~~~~--15-15-14-15-~~~~~--12---12-12-12-----11-12-10----h--h-------------|
B|--------------------------------------------------------13-12-13~~~~~------|
G|---------------------------------------------------------------------------|
D|---------------------------------------------------------------------------|
A|---------------------------------------------------------------------------|
E|---------------------------------------------------------------------------|

                                              h  h                          h
e|-------h--h--h----------------------------12-17-12----------------------12-17-|
B|-12--12-13-12-10----10~~~--------------13----------13-----------------13------|
G|-----------------12-----------------14----------------14------------14--------|
D|-----------------------------h---14---------------------14--h--h--14----------|
A|---------------------------12-15--------------------------15-12-15------------|
E|------------------------------------------------------------------------------|
[ Tab from: http://www.guitartabs.cc/tabs/n/nevermore/tomorrow_turned_into_yesterday_tab_ver_2.html ]
           (bu)              h  p  p  h  p  p  h  p  p  h  p  p       (bu)
e|-16--17-19-20--19-17-16--16-17-16-13-16-13-12-13-12-10-12-10-8-\-/--20-22--|
B|---------------------------------------------------------------------------|
G|---------------------------------------------------------------------------|
D|---------------------------------------------------------------------------|
A|---------------------------------------------------------------------------|
E|---------------------------------------------------------------------------|

                                                  h  h  p     p    (bu)
e|-19-20-19-17----------------------------19~~~-19-20-19-17-------20-22-22-~~~---|
B|-------------20-18-17-------------------------------------20-19----------------|
G|----------------------19-17-16-------------------------------------------------|
D|-------------------------------19-17-------------------------------------------|
A|-------------------------------------------------------------------------------|
E|-------------------------------------------------------------------------------|

     p  p           
e|-20-19-17---p--p-----------------------------------------------------------|
B|----------20-19-17-\15-15~~~--13-13-13-13-12-12-12/10-10-10/8~~~-----------|
G|---------------------------------------------------------------------------|
D|---------------------------------------------------------------------------|
A|---------------------------------------------------------------------------|
E|---------------------------------------------------------------------------|
         h  p  h                                
e|------------------------------------------h--h--p--------------------------|
B|-12--12-13-12-10------------12~~~---13--13-15-13-12------------------------|
G|-----------------12-12~~~-9-------------------------14-12----14~~~---------|
D|----------------------------------------------------------12---------------|
A|---------------------------------------------------------------------------|
E|---------------------------------------------------------------------------|

e|------------------------14-15-17-15-14-15~~~-------------------------------|
B|----------------------15---------------------------------------------------|
G|--/16-14-12-14~~~---16-----------------------------------------------------|
D|---------------------------------------------------------------------------|
A|---------------------------------------------------------------------------|
E|---------------------------------------------------------------------------|
Comments