Nevermore - Tomorrow Turned Into Yesterday Chords & Tabs

 

Tomorrow Turned Into Yesterday Chords & Tabs

Nevermore Chords & Tabs

Version: 1 Type: Tab 0 ratings
1 star 2 stars 3 stars 4 stars 5 stars
comments

Tomorrow Turned Into Yesterday Tab

   
Nevermore - Tomorrow Turned Into Yesterday
from 'Enemies of Reality' (2003)

Tabbed by Peter Kondrup (popetot@sol.dk), Feb. 2004

Played on a 7-string tuned down a half note
You can play it on a regular axe but the song loses some of the Nevermore-sound

Intro
Eb|----0-----------------------------------<12>---<7>-----<5>--
Bb|---1--1----------4---10-1----------------<12>---<7>---<5>---
Gb|-------2-----0--4-------------0--4-------------------<5>----
Db|--2---------0--4----2--------0--4--2------------------------
Ab|-3---------2--2----3--------2--2--22------------------------
Eb|---------23---------------23-------0------------------------
Bb|------------------------------------------------------------

Intro "solo"
Eb|-------------------------------------------------------------
Bb|-----------1212-----------12---------------------------------
Gb|-11h12-1214-----1412111214--12--1212h14p1211-----------------
Db|---------------------------------------------1412------------
Ab|-------------------------------------------------12----------
Eb|---------------------------------------------------15141512--
Bb|-------------------------------------------------------------

Verse                                    Little pre-verse lead
Eb|---------------------------------0--- -----------------------------------
Bb|------------0-----------------0---3-- -----------------------------------
Gb|----0------3--3-------0------2-2----- -----------------------------------
Db|---2--2---2----2-----0--0---2---2---- -12h14-141211--1412----------------
Ab|--2----2-4----------2----2-0--------- -------------------10--910b(12)-12-
Eb|-0---------------023------3---------- -----------------------------------
Bb|------------------------------------- -----------------------------------
					 ^ - vol. swell
[ Tab from: http://www.guitartabs.cc/tabs/n/nevermore/tomorrow_turned_into_yesterday_tab.html ]
Pre-chorus
Eb|----0---0--------------------------
Bb|------1-1---1/3--------------------
Gb|---0----0--------------------------
Db|--2-----2---2/4--4444222255554454--
Ab|-3------3--------2222000055554454--
Eb|-----------------2222000033332232--
Bb|-----------------------------------
                    ^ - dist.
Chorus
    Ab5     Cb5      Gb5     F5 E5
Eb|--------------------------------------
Bb|--------------------------------------
Gb|--------------------------------------
Db|--------------------------------------
Ab|--7-------10-------10------9-8--------
Eb|--5--------8-------10------9-8--------
Bb|--5--------8--------8------7-6--------

Bridge rhythm
Eb|---------------------------------
Bb|---------------------------------
Gb|--7------5------7------3---5-----
Db|--7------5------7------3---5-----
Ab|--5------3------5------1---3-----
Eb|--5------3------5------1---3-----
Bb|---------------------------------

Bridge lead
Eb|---------------------------------
Bb|---------------------------------
Gb|---------------------------------
Db|---------5-------------5--7-5----
Ab|--5-7-8---------5-7-8----8-------
Eb|---------------------------------
Bb|---------------------------------

Heavy part
Eb|-----------------------------------
Bb|-----------------------------------
Gb|-----------------------------------
Db|-----------------------------------
Ab|-7-----7-----7---8-----8-----8-----
Eb|-5-xxxx5-xxxx5-xx6-xxxx6-xxxx6-xx--
Bb|-5-xxxx5-xxxx5-xx6-xxxx6-xxxx6-xx--

Solo backing
Eb|------------------------------
Bb|------------------------------
Gb|-9-----12---------------------
Db|-9-----12-----12---11-10------
Ab|-7-----10-----12---11-10------
Eb|-7-----10-----10----9--8------
Bb|------------------------------

Solo: Sorry, can't really help you there

Final chorus (up one note)
    Bb5     Db5      Ab5     G5 F#5
Eb|--------------------------------------
Bb|--------------------------------------
Gb|--------------------------------------
Db|--------------------------------------
Ab|--9-------12-------12-----11-10-------
Eb|--7-------10-------12-----11-10-------
Bb|--7-------10-------10------9--8-------

Then play the bridge and end with the heavy part. Over and out!
Comments