Nevermore - Beyond Within Chords & Tabs

 

Beyond Within Chords & Tabs

Nevermore Chords & Tabs

Version: 1 Type: Tab 0 ratings
1 star 2 stars 3 stars 4 stars 5 stars
comments

Beyond Within Tab

   
-------------------------------------------------------------------------------
			     Beyond Within - Nevemore
-------------------------------------------------------------------------------
Tabbed by: Jeremy Scott
Email: jsl_00@hotmail.com

Tuning: Down 1/2 step

Im not tabing out the palm mutes exactly, but if you listen to the song you
get the jist of it. This is my very first tab, so bare with me, im not sure
about the solo yet, the tab may be a lil rough but suggestions are welcome.

       Intro
e|---------------------------------------------------------------------------|
B|---------------------------------------------------------------------------|
G|---------------------------------------------------------------------------|
D|------------555/-66\-33----------------------------------------------------|X 8 Times
A|2-22-2-2-2-----------------------------------------------------------------|
E|0 00-0-0-0--333/-44\-11----------------------------------------------------|
    ..

     Pre-Verse Riff
e|---------------------------------------------------------------------------|
B|---------------------------------------------------------------------------|
G|/9------10----8----9-------10----8-----4 Times-----------------------------|
D|---------------------------------------w/ this-----10 10 10-10\--9-9\-8-8--|
A|/7------8-----6----7-------8-----6-----on the end--------------------------|
E|----00-----0-----0----0000----0-----0--of the 4th---8 8  8  8-\--7-7\-6-8--|
      ..     .     .    ....    .     .

    Verse
e|---------------------------------------------------------------------------|
B|---------------------------------------------------------------------------|
G|----------101010---9-9-1010----------101010---9-9-1010---------------------|X 4
D|---------------------------------------------------------------------------|
A|22222222---8 8-8---7-7-8-8--33333333--8-8-8---7-7-8-8----------------------|
E|00000000--------------------11111111---------------------------------------|
  ........                    ........
[ Tab from: http://www.guitartabs.cc/tabs/n/nevermore/beyond_within_tab.html ]
   Pre Chorus Riff  (I can't really hear what he plays here, so i just play this)

e|---------------------------------------------------------------------------|
B|---------------------------------------------------------------------------|
G|---------------------------------------------------------------------------|X1
D|---------------------------------------------------------------------------|
A|--10--9---8---7---4--------------------------------------------------------|
E|--8---7---6---5---2--------------------------------------------------------|
  


    Chorus
e|---------------------------------------------------------------------------|
B|---------------------------------------------------------------------------|
G|---------------------------------------------------------------------------|
D|------------555/-66\-33----------------------------------------------------|X 4
A|2-22-2-2-2-----------------------------------------------------------------|
E|0 00-0-0-0--333/-44\-11----------------------------------------------------|
    ..


Clean Part (Feel free to make suggestions on this part, i just play chords)
 
Am    E    G    Em


Bridge

e|---------------------------------------------------------------------------|
B|---------------------------------------------------------------------------|X4
G|-------1-------------------------------------------------------------------|
D|-------2-------------------------------------------------------------------|
A|--7----2-----5-----2-------------------------------------------------------|
E|--5----0-----3-----0-------------------------------------------------------|








Order:
Intro (x8)
Pre-Verse(4)
Verse(4)
Pre Chorus(1)
Chorus (4)
Pre Chorus (1)
Pre Verse (4)
Verse (4)
Pre Chorus (1)
Chorus (4)
Pre Chorus (1)
Clean  (4)
Bridge (4)
Pre Chorus (1)
Pre Verse(4)
Verse (4)
Chorus (8)
Pre Chorus (3)


| ...  palm mute
| /  slide up
| \  slide down
| h  hammer-on
| p  pull-off
| ~  vibrato
| +  harmonic
| x  Mute note
===============================================================================
Comments