Nevermind - I Change Chords & Tabs

 

I Change Chords & Tabs

Nevermind Chords & Tabs

Version: 1 Type: Tab 0 ratings
1 star 2 stars 3 stars 4 stars 5 stars
comments

I Change Tab

   
*************I CHANGE************

---------------------------------

Music by Philipp Nebel
Lyrics by Marcus Jakob

---------------------------------

VERSE I

Eb
  She bleaches her hair,
F
  to make me scared.
Eb
  I often sweared.
F
  Oh, yes I care.
Eb
  She tries to be
F
  no more so cheap.
Eb
  To make me scared,
F
  she had to care.

CHORUS

         Bb
She's my Hairspray Queen.
          Ab      F#
She's not like it seems.
              Bb
But she knows what I mean,
                Ab        F#
'cause she's my Hairspray Queen

VERSE II

Eb
  She bleaches her hair.
F
  She knows I'm scared.
Eb
  Don't try to be,
F
  you aren't cheap.
Eb
  Don't go with them,
F
  try to pretend.
Eb
  Don't speak too loud.
F
  Oh, I'm not proud.

CHORUS

         Bb
She's my Hairspray Queen.
          Ab      F#
She's not like it seems.
              Bb
But she knows what I mean,
                Ab        F#
'cause she's my Hairspray Queen

Solo
[ Tab from: http://www.guitartabs.cc/tabs/n/nevermind/i_change_tab.html ]
   Eb                       F
E-||------------------------|-------------------------||
B-||------------------------|-------------------------||
G-||------------------------|-------------------------||
D-||-------6--8-8-13-13-----|-----------3-3-----------||
A-||-6--8--------------13-13|-----1-3-3-----3-3-3-3---||
E-||------------------------|-1-3---------------------||

   Eb                       F
E-||------------------------|-------------------------||
B-||------------------------|-------------------------||
G-||------------------------|-------------------------||
D-||-------6--8-8-13-13-----|-----------3-3-----------||
A-||-6--8--------------13-13|-----1-3-3-----3-3-3-3---||
E-||------------------------|-1-3---------------------||

   Eb                       F
E-||------------------------|-------------------------||
B-||------------------------|-------------------------||
G-||------------------------|-------------------------||
D-||-------6--8-8-13-13-----|-----------3-3-----------||
A-||-6--8--------------13-13|-----1-3-3-----3-3-3-3---||
E-||------------------------|-1-3---------------------||

   Eb                       F
E-||------------------------|-------------------------||
B-||------------------------|-------------------------||
G-||------------------------|-------------------------||
D-||-------6--8-8-13-13-----|-----------3-3-----------||
A-||-6--8--------------13-13|-----1-3-3-----3-3-3-3---||
E-||------------------------|-1-3---------------------||

CHORUS

         Bb
She's my Hairspray Queen.
          Ab      F#
She's not like it seems.
              Bb
But she knows what I mean,
                Ab        F#
'cause she's my Hairspray Queen

END

Eb
Comments