Nevermind - Freak In Pain Chords & Tabs

 

Freak In Pain Chords & Tabs

Nevermind Chords & Tabs

Version: 1 Type: Chords 0 ratings
1 star 2 stars 3 stars 4 stars 5 stars
comments

Freak In Pain Chords

   
http://www.nevermind-online.de

*************FREAK IN PAIN************

---------------------------------

Music by Philipp Nebel
Lyrics by Philipp Nebel

---------------------------------

E  D  C  H

E  D  C  H

VERSE I

E           D       C        H
I'll get in your possession.
E      D        C       H
Do you hear the sound ?
E        D        C     H
They are laughing about you
    E      D    C    H 
and me and everyone around.

E  D  C  H

E  D  C  H

     E       D     C          H
It's perfect for a plant like me,
    E    D              C     H
but even better for the rain.
E          D          C     H
I won't be guilty for being save,
E       D              C     H
but for throwing up in pain.

CHORUS

E     D     C     H
yeah________      I won't be
E      D     C     H
there________      I won't be
E      D     C     H
there________      I won't be
E      D     C     H
there________      I won't be
E      D     C     H
there
E      D     C     H

VERSE II

 E   D         C      H
Imagination is just a lie
E    D             C      H
  of different memories
E          D       C         H
you can't imagine, that your mind
E    D                C      H
  is playing jokes on me

E  D  C  H

E  D  C  H

E          D      C    H
Just don't try to understand,
E           D        C     H
  you won't do it anyway.
E         D      C    H
I think I am the only one,
E       D           C     H
  while many others pray.

CHORUS

E     D     C     H
yeah________      I won't be
E      D     C     H
there________      I won't be
E      D     C     H
there________      I won't be
E      D     C     H
there________      I won't be
E      D     C     H
there
E      D     C     H

VERSE III
[ Tab from: http://www.guitartabs.cc/tabs/n/nevermind/freak_in_pain_crd.html ]
  E  D     C       H     
Naivety is just my friend
E  D       C      H
as witness of a denial.
   E      D      C          H
My family died before I was born
   E         D       C              H
In memory of them, I killed them as child.

E  D  C  H

E  D  C  H

E         D           C        H
Don't you think, that now it's time ?
E       D      C      H
I'm too old to get restrained,
     E     D       C    H
from being sure to do a crime,
     E     D       C      H
from being glad to die in pain.

CHORUS

E     D     C     H
yeah________      I won't be
E      D     C     H
there________      I won't be
E      D     C     H
there________      I won't be
E      D     C     H
there________      I won't be
E      D     C     H
there
E      D     C     H

SOLO
 
     E      D       C       H
E-||-7--7-7-5--5-5-|-3--3-3-10-9-7-5-||
B-||---------------|-----------------||
G-||---------------|-----------------||
D-||---------------|-----------------||
A-||---------------|-----------------||
E-||---------------|-----------------||

     E      D       C       H
E-||-7--7-7-5--5-5-|-3--3-3-10-9-7-5-||
B-||---------------|-----------------||
G-||---------------|-----------------||
D-||---------------|-----------------||
A-||---------------|-----------------||
E-||---------------|-----------------||

     E      D       C       H
E-||-7--7-7-5--5-5-|-3--3-3-10-9-7-5-||
B-||---------------|-----------------||
G-||---------------|-----------------||
D-||---------------|-----------------||
A-||---------------|-----------------||
E-||---------------|-----------------||

     E      D       C       H
E-||-7--7-7-5--5-5-|-3--3-3-10-9-7-5-||
B-||---------------|-----------------||
G-||---------------|-----------------||
D-||---------------|-----------------||
A-||---------------|-----------------||
E-||---------------|-----------------||

CHORUS

E     D     C     H
yeah________      I won't be
E      D     C     H
there________      I won't be
E      D     C     H
there________      I won't be
E      D     C     H
there________      I won't be
E     
there
Comments