Nevermind - Anemia Chords & Tabs

 

Anemia Chords & Tabs

Nevermind Chords & Tabs

Version: 1 Type: Chords 0 ratings
1 star 2 stars 3 stars 4 stars 5 stars
comments

Anemia Chords

   
http://www.nevermind-online.de

*************ANEMIA************

---------------------------------

Music by Marcus Jakob, Philipp Nebel
Lyrics by Marcus Jakob

---------------------------------

CALM PART

    E             F     G
E-||--------------------------|
B-||--------------------------|
G-||--------------------------| 
D-||--------2-----------5-----|
A-||-----2-----2-----3-----5--|
E-||--0-----------1-----------|
play this over the verse


E                     F   G
Help me
E                     F   G
 I think it's strange
  E                   F   G
I hate me
E                     F   G
 I wanna change

E (let ring out)

LOUD PART

E    F  G

E    F  G

E       F             G
Help me, I think it's strange
  E       F        G
I hate me, I wanna change
E         F           G
Change me, I feel too glad
   E       F            G
so range me that I feel bad
E       F             G
save me, you have the choice
   E       F            G
to sale me, then make a noise

E    F  G

E    F  G

Solo

    E              F      G       E             F      G
E-||----------------------------|----------------------------||
B-||----------------------------|----------------------------||
G-||----------------------------|----------------------------||
D-||----------------------------|----------------------------||
A-||----------------------------|----------------------------||
E-||-7-5-7-5-7-5---5--5---3-----|-7-5-7-5-7-5---8---8--10----||
[ Tab from: http://www.guitartabs.cc/tabs/n/nevermind/anemia_crd.html ]
    E              F      G       E             F      G
E-||----------------------------|----------------------------||
B-||----------------------------|----------------------------||
G-||----------------------------|----------------------------||
D-||----------------------------|----------------------------||
A-||----------------------------|----------------------------||
E-||-7-5-7-5-7-5---5--5---3-----|-7-5-7-5-7-5---8---8--10----||

    E              F      G       E             F      G
E-||----------------------------|----------------------------||
B-||----------------------------|----------------------------||
G-||----------------------------|----------------------------||
D-||----------------------------|----------------------------||
A-||----------------------------|----------------------------||
E-||-7-5-7-5-7-5---5--5---3-----|-7-5-7-5-7-5---8---8--10----||

    E              F      G       E             F      G
E-||----------------------------|----------------------------||
B-||----------------------------|----------------------------||
G-||----------------------------|----------------------------||
D-||----------------------------|----------------------------||
A-||----------------------------|----------------------------||
E-||-7-5-7-5-7-5---5--5---3-----|-7-5-7-5-7-5---8---8--10----||

E       F             G
Help me, I think it's strange
  E       F        G
I hate me, I wanna change

E    F  G

E    F  G

E       F   G
Help me,  I hate me
E       F   G
Help me,  I hate me
E       F   G
Help me,  I hate me
E       F   G
Help me,  I hate me
E       F   G
Help me,  I hate me
E       F   G
Help me,  I hate me
E       F   G
Help me,  I hate me
E       F   G
Help me,  I hate me

END

E
Comments