Neverending White Lights - Grace Chords & Tabs

 

Grace Chords & Tabs

Neverending White Lights Chords & Tabs

Version: 2 Type: Tab

Grace Tab

The Grace - Neverending White Lights Ft. Dallas Green

Amazing song, easy to play.

->Intro (x3)

Guitar 1
Strum This

e| --5--7--2--2-------------------------------------------------------------|
b| --5--7--2--2-------------------------------------------------------------|
g| --6--9--2--2-------------------------------------------------------------|
d| --7--9--4--4-------------------------------------------------------------|
a| --7--7--4--4-------------------------------------------------------------|
E| --5--7--2--2-------------------------------------------------------------|


->Main Riff (x2) (comes in after intro is played 1st out of the 3 times)

Guitar 2

e| ------5-4----------5-4----------5-4-(Let Ring)------------------------|
b| ----5------------5------------5---------------------------------------|
g| --6------------6------------6-----------------------------------------|
d| ----------------------------------------------------------------------|
a| ----------------------------------------------------------------------|
E| ----------------------------------------------------------------------|

->Verse 1 (8x)

Guitar 1 plays intro chords

Guitar 2 is not playing during the verse


->Chorus (play this riff 3x, you can play the regular chords, but to give it that Bass 
play power chords, if u have a bass playing the song with you, then use the regular 
from the intro)

Guitar 1

e| ----------------------------------------------------------------------|
b| ----------------------------------------------------------------------|
g| ----------------------------------------------------------------------|
d| -4444444444444444--7777777777777777-----------------------------------|
a| -4444444444444444--7777777777777777-----------------------------------|
E| -2222222222222222--5555555555555555-----------------------------------|


->2nd Verse

Guitar 1: Play intro chords 2x, but only hit once, do not strum much,just lightly, 
to the song for beat

e| --5--7--2--2----------------------------------------------------------|
b| --5--7--2--2----------------------------------------------------------|
g| --6--9--2--2----------------------------------------------------------|
d| --7--9--4--4----------------------------------------------------------|
a| --7--7--4--4----------------------------------------------------------|
E| --5--7--2--2----------------------------------------------------------|

->PAUSE FOR 4 BEATS, JUST DRUMS
[ Tab from: http://www.guitartabs.cc/tabs/n/neverending_white_lights/grace_tab_ver_2.html ]
Continue the Verse, strum the same chords (intro, verse) x6, first 2 times only, play 
with guitar 2 to main riff (modified), x2

e| ------5-4------5-4------5-4-|-----5-4-----5-4-----5/7-5-4-------------|
b| ----5--------5--------5-----|---5-------5-------5---------------------|
g| --6--------6--------6-------|-6-------6-------6-----------------------|
d| ----------------------------------------------------------------------|
a| ----------------------------------------------------------------------|
E| ----------------------------------------------------------------------|

->Chorus, same as first chorus

->3rd Verse, same progression as 2nd verse(so 4 times), before the breakdown to the main riff

->Pause, Dallas Sings "...lose....lose..."

->Outro

Guitar 1 (x6)

e| --5--7--2--2----------------------------------------------------------|
b| --5--7--2--2----------------------------------------------------------|
g| --6--9--2--2----------------------------------------------------------|
d| --7--9--4--4----------------------------------------------------------|
a| --7--7--4--4----------------------------------------------------------|
E| --5--7--2--2----------------------------------------------------------|

Guitar 2

e| ------5-4------5-4------5-4-|-----5-4-----5-4-----5/7-5-4-------------|
b| ----5--------5--------5-----|---5-------5-------5---------------------|
g| --6--------6--------6-------|-6-------6-------6-----------------------|
d| ----------------------------------------------------------------------|
a| ----------------------------------------------------------------------|
E| ----------------------------------------------------------------------|

e| ------5-4------5-4------5-4-|-----5-4-----5-4-----5/7-5-4-------------|
b| ----5--------5--------5-----|---5-------5-------5---------------------|
g| --6--------6--------6-------|-6-------6-------6-----------------------|
d| ----------------------------------------------------------------------|
a| ----------------------------------------------------------------------|
E| ----------------------------------------------------------------------|

e| --------5-4------5-4------5/7-5-4-|------5-4--2-2---2-----------------|
b| ------5--------5--------5---------|----5----------5-------------------|
g| ----6--------6--------6-----------|--6--------------------------------|
d| ----------------------------------|-----------------------------------|
a| ----------------------------------|-----------------------------------|
E| ----------------------------------|-----------------------------------|

Thanks guys, i hope its helpful. I think its good, if you have any corrections, send em 
toby_bolduc@hotmail.com