Neve - Its Over Now Chords & Tabs

 

Its Over Now Chords & Tabs

Neve Chords & Tabs

Version: 1 Type: Chords 0 ratings
1 star 2 stars 3 stars 4 stars 5 stars
comments

Its Over Now Chords

   
Intro: C9 - Gadd - Dm - Fm9

Verse1:
     C9
She comes up, and over time
       Gadd  
She'll see what I could be
  Dm   
A cold routine or somethin'
          Fm9
That just won't stop touchin' me
       C9
And I wait here, another time
       Gadd
Like a thousand times before
      Dm
(I'm) droppin' out and faded
      Fm9
But I keep on wanting more…
C    G          Dm   "F - E - C - G
   Uuh-uuh-uuh-uuuh...
NOTE: Only play on these strings: E, A and D, when you play the last four chords" 

Verse2:
She comes up, another time
And she really really doesn't care
That I can't keep time or the rhythm straight
'Cause it's one thing she don't dare
And it's alright, I drop the line
Now it's one thing to be free
Well I never really had a thing for that
But it's everything I need

Chorus:
      C         G          Dm
And you, don't ever understand
        Fm               C
It's right here in our hands
      G             Dm
The outline of our lives
      Fm
It's over now...

Verse3:
And she wakes up, from a deeper sleep
A nightmare through and through
She won't stop trippin' on the daytime vibe
But that's one thing I won't do
Then it's over and back again
Still on the attack
But I'm convinced I've found a reason
To keep her comin' back

Chorus:
And you, don't ever understand
It's right here in our hands
The outline of our lives
It's over now!

                                                Solo 1:
e-----------------------------------------------------------------------------------------
b------------------------------------10-----------------------------10----13---11---10h11-
g--------7---9---7---9-----9---7----------10---7h9---10---9---7----------------------------12
d---10------------------------------------------------------------------------------------
a-----------------------------------------------------------------------------------------
E-----------------------------------------------------------------------------------------
[ Tab from: http://www.guitartabs.cc/tabs/n/neve/its_over_now_crd.html ]
e------------------------------------13------13------13(s17)---17------17-----------
b---11---10------------------------------11------11----------------15------15--15---
g-------------10h12---10-----10-10--------------------------------------------------
d-----------------------------------------------------------------------------------
a-----------------------------------------------------------------------------------
E-----------------------------------------------------------------------------------

e---17h18-17h18-17h18-17h18---20h21-20h21-20h21-20h21-----
b---------------------------------------------------------
g---------------------------------------------------------
d---------------------------------------------------------
a---------------------------------------------------------
E---------------------------------------------------------

G(add) - G(add)

Bridge:
                      C(add)
You won't ever be happier
          Bb                                  C(add)
Until you find that special place where you belong
     Gm                     C(add)
And you, won't ever be happier
          Bb
Until you find that only way
          G                       C(add)
Until you find the only way back home...

Chorus:
And you, don't ever understand
It's right here in our hands
The outline of our lives
It's over now!

                                          Solo 2:                        It's Over Now...
e-----------------------------------------------------------------------------------------
b-----------------------------------------------------------------------------------------
g---5--5--5--5--5-5-5--5---4--4--------------7--7--7--7--7-7-7--7--5---7--7s9--7--5-------
d----------------------------------7s5--5-------------------------------------------------
a-----------------------------------------------------------------------------------------
E-----------------------------------------------------------------------------------------

                         Uuh-uuh-uuh-uuuh...                       It's Over Now...
e---------------------------------------------------------------------------
b---------------------------------------------------------------------------
g---7h9--9--9--9--9--9--9---7s5--5---4--------------------------------5-----
d----------------------------------------5--5h7--7--7--7--7--7--7-----------
a---------------------------------------------------------------------------
E---------------------------------------------------------------------------
Comments