Neva - Old Chords & Tabs

 

Old Chords & Tabs

Neva Chords & Tabs

Version: 1 Type: Tab 0 ratings
1 star 2 stars 3 stars 4 stars 5 stars
comments

Old Tab

Intro 2x
e|------------------------------------------------------------|
B|-------------1-----------1----------1-----------1-----------|
G|----------2-----------2----------0-----------0--------------|
D|-------2-----------3----------2-----------3-----------------|
A|----0-----------0----------3-----------3--------------------|
E|------------------------------------------------------------|
Main Part
e|----------------------------------------------3--------------|
B|-1------1-----------1--------1---------3--------3---3--------|
G|----2-----2---2--------0-------0---0------0-------0----------|
D|------2-----2------------2-------2----------0----------------|
A|-0------------------3----------------------------------------|
E|---------------------------------------3---------------------|

[ Tab from: http://www.guitartabs.cc/tabs/n/neva/old_tab.html ]
                        Listen to song for strum pattern
e|-1------1----------------------------3---1-------------------|
B|----3------3---3--------------1---1--2---3--1----------------|
G|------2------2----------------2---0--0---2--2----------------|
D|-0----------------------------2---2--0------2----------------|
A|----------------------------------3--3-----------------------|
E|-------------------------------------3-----------------------|

e|-------------------------------------------------------------|
B|-------------------------------------------------------------|
G|-0-----0--------0-----0--------------0-----------------------|
D|---2-----2-2-------2----2-2---0--0-----0---0-----------------|
A|----2-----2-----3---3----3--------2------2-------------------|
E|-0----------------------------3------------------------------|

e|------------------------------------------------------------|
B|------------------------------------------------------------|
G|------------------------------------------------------------|
D|------------------------------------------------------------|
A|------------------------------------------------------------|
E|------------------------------------------------------------|
Comments