Neva - Fade Chords & Tabs

 

Fade Chords & Tabs

Neva Chords & Tabs

Version: 1 Type: Tab 0 ratings
1 star 2 stars 3 stars 4 stars 5 stars
comments

Fade Tab

main 2x
e|------------------------------------------------------------|
B|------------------------------------------------------------|
G|-------------5--55-5/75---------------5--55-5/7------------|
D|---------7---5--55-5/75----------7----5--55-5/7------------|
A|-------7-----3--33-3/53--------7------3--33-3/5------------|
E|----5-------------------------5-----------------------------|

e|------------------------------------------------------------|
B|------------------------------------------------------------|
G|-------------7-----------6-----------5------------4---------|
D|-------7-----5-----7-----4------7----3-------7----2---------|
A|-----7---7-------7---7--------7---7--------7---7------------|
E|---5-----------5------------5------------5------------------|
[ Tab from: http://www.guitartabs.cc/tabs/n/neva/fade_tab.html ]
e|---0---------0-------0-------0--------0-------0-------0------0-----|
B|--------3----------------------------------------------------------|
G|-----------------5-------4-------0---------------------------------|
D|------------------------------------------4-------3------2------1--|
A|--0-0-------0-0-----0-0-----0-0------0-0-----0-0-----0-0----0-0----|
E|-------------------------------------------------------------------|

e|------------------------------------------------------------|
B|------------------------------------------------------------|
G|------------------------------------------------------------|
D|-7--9--7--5-4-----------------------------------------------|
A|-7--9--7--5-4-----------------------------------------------|
E|-5--7--5--3-2-----------------------------------------------|
Comments