Neurosis - Away Chords & Tabs

 

Away Chords & Tabs

Neurosis Chords & Tabs

Version: 2 Type: Tab

Away Tab

   
Away
Times of grace
Neurosis

1999


Tabbed by psychic_scar


*****************************************************************

Please don't copy this tab without my permission

If you have corrections, put them into the comments and don't
upload a new version with using my interpretion tab.
I will check the corrections and take them over if they make sense.

*****************************************************************



Steve von Till - AADGAD    -  left channel
Scott Kelly    - AADGBE    - right channel



0:16

SK
-----------------------------------------|
-----------------------------------------|
-----------------------------------------|
--10-----9------7-----10-----9------7----|
----------------0-------------------0----|
-----------------------------------------|
|
SVT
-----------------------------------------|
-----------------------------------0-----|
---------------9------------10--9--4--5--|
---------------7------7-----9------------|
-----------------------------------------|
-----------------------------------------|


1:06

Riff 1 - both
-----------------------------------|
-----------------------------------|
-----------------------------------|
--10--9---7---5---3---5---3---2----|
--0---0---0---0---0---0---0---0----|
-----------------------------------|




Riff 2

SVT
-----------------------------------|
-----------------------------------|
-----------------------------------|
---0---0---0---0--0--0---0---0---0-|
---7-\-5-\-3-\-2--0--2-/-3-/-5-/-7-|
-----------------------------------|
|
SK
-----------------------------------|
-----------------------------------|
-----------------------------------|
-------0---0---0--0----------------|
---7-\-5-\-3-\-2--0----------------|
-----------------------------------|



Riff 1



Riff 2



3:50
[ Tab from: http://www.guitartabs.cc/tabs/n/neurosis/away_tab_ver_2.html ]
SVT
-------------------------------|
-----0--------5--------0--0----|
-----5--4--2--5----10--9--4--5-|
-------------------------------|
-------------------------------|
-------------------------------|
|
SK
-------------------------------|
-------------------------------|
-------------------------------|
----10--9--7--10--10--9--7--10-|
-------------------------------|
-------------------------------|


Riff 1


Riff 2



6:03 SVT
--------------------------------|
--------------------------------|
---2----------------------------|
--------3-----------------------|    x2
-------------1------------------|
--------------------------------|

SVT
--------------------------------|
--------------------------------|
---2-----------------2----------|
--------3-----------------------|    x4
-------------1-----------(1)--0-|
--------------------------------|




6:43 SK
------------------------------------------------------|
------------------------------------------------------|
---14-------------------------------------------------|
--------15--------------------15----------------------|
------------------------13----------------------------|
-------------13----------------------13---0-----------|


7:02
SK Distortion
---------------------------------------------------------------------|
---------------------------------------------------------------------|
---14----------------------------------------------------------------|
-------15------------------------------------------------------------|
------------13----13--13----0---0------------------------------------|
------------------13--13----0---0------------------------------------|
|           PM.....................
|
SVT Distortion   (not sure about this)
-------------------------------------------------------------------------|
---0--------------0---0--------------------------------------------------|
---14------------ 2---2--------------------------------------------------|
---0--------3-----2---2--------------------------------------------------|
------------1---------------0---0----------------------------------------|
----------------------------0---0----------------------------------------|
                            PM....


************************************

| /   slide up
| \   slide down
| h   hammer-on
| p   pull-off
| ~   vibrato
| +   harmonic
| x   Mute note
| b   Bend
| pb  Pre-bend
| br  Bend release
| pbr Pre-bend release
| brb Bend release bend

************************************