Neuro Fuzzy - Rice Cooker Chords & Tabs

 

Rice Cooker Chords & Tabs

Neuro Fuzzy Chords & Tabs

Version: 1 Type: Bass Tab 0 ratings
1 star 2 stars 3 stars 4 stars 5 stars
comments

Rice Cooker Bass Tab

This part is played by bass. Whew, it took me for ever to get this down!

USE PICK!


G---------------------------------------------------------
D---------------------------------------------------------
A---------------------------------------------------------
E--3-3-3-3-3-3-3-3-3-3-3-3-3-3-3-3-3-3-3-3-3-3-3-3-3-3-3-3

WATCH OUT BIG JUMP!!!!!


G---------------------------------------------------------
D---------------------------------------------------------
A---------------------------------------------------------
E--0-0-0-0-0-0-0-0-0-0-0-0-0-0-0-0-0-0-0-0-0-0-0-0-0-0-0-0

[ Tab from: http://www.guitartabs.cc/tabs/n/neuro_fuzzy/rice_cooker_btab.html ]
G-----------------------------------------------------------
D-----------------------------------------------------------
A-----------------------------------------------------------
E--1-1-1-1-1-1-1-1-1-1-1-1-1-1-1-1-1-1-1-1-1-1-1-1-1-1-1-1-1

Bridge(really hard part!)


G--2h3--------------------------------------------------------
D-------------------------------------------------------------
A-------------------------------------------------------------
E-------------------------------------------------------------

BASS SOLOOOOOOOO!

Take off your shoe and start slapping your bass like a maniac!
Press on these frets.

G---2-3-5-4-5-7-5-7-8-7-8-0-0-0-0-0-0-0-0-0
D------------------------------------------
A------------------------------------------
E--0-9-8-2-5-4-5-6-7------54-54-54-54-54-54

Oh yeah, I forgot, you need a custom Carl Thompson bass with 72 frets.

No offense, but Louie is a disgrace to bass. It rhymes nicely don't ya think?
Comments