Network - Supermodel Robots Chords & Tabs

 

Supermodel Robots Chords & Tabs

Network Chords & Tabs

Version: 2 Type: Tab

Supermodel Robots Tab

   
Song: Supermodel Robots
By: The Network
Tabbed by: “Green Envy TGND”
Tuning: Standard

Drum intro…

When The Snoo hits the snare drum for the 4th time you start playing this:
   B5   A5 E5,Eb5
E|------------|
B|------------|
G|---------98-|
D|-9999-77-98-|
A|-9999-77-76-|
E|-7777-55----|


B5          A5,E5,Eb5
Not Quite a fembot
B5               A5,E5,Eb5
but almost an alien…

then it continues like this until the chorus which I think is the part they go “ahh”

Chords for the chorus: F#5,Em,F#5,Em,F#5

E|----------     ----------     ----------     ------------|
B|----------     ----------     ----------     ------------|
B|----------     ----------     ----------     ------------|
G|----------“AHH”----------“AHH”----------“AHH”------------|
D|-4-2-4-2-4     -4-2-4-2-4     -4-2-4-2-4     -4-2-4-2-4--|
A|-4-2-4-2-4     -4-2-4-2-4     -4-2-4-2-4     -4-2-4-2-4--|
E|-2---2---2     -2---2---2     -2---2---2     -2---2---2--|
After that it goes on to the second verse which you play just like the first verse.

Now comes the second chorus thing:
[ Tab from: http://www.guitartabs.cc/tabs/n/network/supermodel_robots_tab_ver_2.html ]
E|----------     ----------     ----------     ---------------------|
B|----------     ----------     ----------     ---------------------|
B|----------     ----------     ----------     ---------------------|
G|----------“AHH”----------“AHH”----------“AHH”----------“purrrooo--|
D|-4-2-4-2-4     -4-2-4-2-4     -4-2-4-2-4     -4-2-4-2-4-----------|
A|-4-2-4-2-4     -4-2-4-2-4     -4-2-4-2-4     -4-2-4-2-4-----------|
E|-2---2---2     -2---2---2     -2---2---2     -2---2---2-----------|

Next is the… well you can call it the “Sirens bridge\solo thingy” this is how you play it:

E|------------|
B|------------|
G|---------98-|
D|-9999-77-98-|
A|-9999-77-76-|
E|-7777-55----|  Play this over 8 times.

“All systems down” then:

|----------     ----------     ----------     -----------|
|----------     ----------     ----------     -----------|
|----------     ----------     ----------     -----------|
|----------“AHH”----------“AHH”----------“AHH”-----------|
|-4-2-4-2-4     -4-2-4-2-4     -4-2-4-2-4     -4-2-4-2-4-|
|-4-2-4-2-4     -4-2-4-2-4     -4-2-4-2-4     -4-2-4-2-4-|
|-2---2---2     -2---2---2     -2---2---2     -2---2---2-|

Play the second verse (it’s the last verse that he sings.  It’s a mix between the 1st 
2nd verses. You’ll figure it out with your cd.) again and finally end it with:

|----------     ----------     ----------     -----------|
|----------     ----------     ----------     -----------|
|----------     ----------     ----------     -----------|
|----------“AHH”----------“AHH”----------“AHH”-----------|
|-4-2-4-2-4     -4-2-4-2-4     -4-2-4-2-4     -4-2-4-2-4-|
|-4-2-4-2-4     -4-2-4-2-4     -4-2-4-2-4     -4-2-4-2-4-|
|-2---2---2     -2---2---2     -2---2---2     -2---2---2-|

Okay you’re done. Have fun! I feel pretty good about this tab even though it was my first one.