Netral - Pertempuran Hati Chords & Tabs

 

Netral Chords & Tabs

Version: 1 Type: Tab 0 ratings
1 star 2 stars 3 stars 4 stars 5 stars
comments

Pertempuran Hati Tab

   
          Netral - Pertempuran Hati                                 
                                                                       

                                   PM PM   PM PM   PM PM                PM PM   
     S                             S  S  S S  S  S S  S               S S  S  S 
E||-----------------------------------------------------------------------------|
B||--5-----------------------------5--5--5-5--5--5-5--5---------------5-5--5--5-|
G||--5-----------------------------5--5--5-5--5--5-5--5---------------5-5--5--5-|
D||--5-----------------------------5--5--5-5--5--5-5--5---------------5-5--5--5-|
A||--3-----------------------------3--3--3-3--3--3-3--3---------------3-3--3--3-|
E||-----------------------------------------------------------------------------|


                                   
                                PM   PM PM   PM PM   PM PM     PM PM  
  S                           S S  S S  S  S S  S  S S  S  S S S  S   
---------------------------------------------------------------------|
--5---------------------------6-6--6-6--6--6-6--6--6-6--6--6-6-6--6--|
--5---------------------------5-5--5-5--5--5-5--5--5-5--5--5-5-5--5--|
--5---------------------------5-5--5-5--5--5-5--5--5-5--5--5-5-5--5--|
--3---------------------------3-3--3-3--3--3-3--3--3-3--3--3-3-3--3--|
---------------------------------------------------------------------|


      PM   PM PM   PM PM   PM PM     PM PM                                     
  S S S  S S  S  S S  S  S S  S  S S S  S     S S S S S S S S S S S S S S S S  
-------------------------------------------|----------------------------------|
--6-5-5--5-5--5--5-5--5--5-5--5--5-5-5--5--|--5-5-5-5-5-5-5-5-5-5-5-5-5-5-5-5-|
--5-5-5--5-5--5--5-5--5--5-5--5--5-5-5--5--|--5-5-5-5-5-5-5-5-5-5-5-5-5-5-5-5-|
--5-5-5--5-5--5--5-5--5--5-5--5--5-5-5--5--|--5-5-5-5-5-5-5-5-5-5-5-5-5-5-5-5-|
--3-3-3--3-3--3--3-3--3--3-3--3--3-3-3--3--|--3-3-3-3-3-3-3-3-3-3-3-3-3-3-3-3-|
-------------------------------------------|----------------------------------|


   E   S  S  E   S  S  S  S  S  S  S  S  S  S  
----------------------------------------------|
----------------------------------------------|
----------------------------------------------|
--15--17-15-14--15-14----15-14-------14-------|
----------------------17-------17-15----17-15-|
----------------------------------------------|


   E   S  S  E   S  S  S  S  S  S  S  S  S  S  
----------------------------------------------|
----------------------------------------------|
----------------------------------------------|
--15--17-15-14--15-14----15-14-------14-------|
----------------------17-------17-15----17-15-|
----------------------------------------------|


   E   S  S  E   S  S  S  S  S  S  S  S  S  S  
----------------------------------------------|
----------------------------------------------|
----------------------------------------------|
--15--17-15-14--15-14----15-14-------14-------|
----------------------17-------17-15----17-15-|
----------------------------------------------|


   E   S  S  E   S  S  S  S  S  S  S  S  S  S  
----------------------------------------------|
----------------------------------------------|
----------------------------------------------|
--15--17-15-14--15-14----15-14-------14-------|
----------------------17-------17-15----17-15-|
----------------------------------------------|


   E   S  S  E   S  S  S  S  S  S  S  S  S  S  
----------------------------------------------|
----------------------------------------------|
----------------------------------------------|
--15--17-15-14--15-14----15-14-------14-------|
----------------------17-------17-15----17-15-|
----------------------------------------------|


   E   S  S  E   S  S  S  S  S  S  S  S  S  S  
----------------------------------------------|
----------------------------------------------|
----------------------------------------------|
--15--17-15-14--15-14----15-14-------14-------|
----------------------17-------17-15----17-15-|
----------------------------------------------|


   E   S  S  S  S  S  S  S  S  S  S  S  S  S  S  
------20-------20-------15-------15-------------|
------------------------------------------------|
------17-------17-------------------------------|
--17-----17-17----14-17-17-14-17-17----14-12----|
------------------------------------15-------15-|
------------------------------------------------|


   S  S  S  S  S  S  S  S  S  S  S  S  S  S  S  S     W                 
--------------------------------------------------|--------------------|
-----------------------13-12----12-13-------------|--------------------|
-----------------------------12----------12-------|--------------------|
--14-12-12-14----12-------------------14----12-14-|--10----------------|
--------------15----15----------------------------|--------------------|
--------------------------------------------------|--------------------|


C
Ketika engkau di hasut
F
Dan di fikiranmu terpaut
Am               G F
Terjadilah... pertempuran hati..



   E   S  S  E   S  S  S  S  S  S  S  S  S  S  
----------------------------------------------|
----------------------------------------------|
----------------------------------------------|
--15--17-15-14--15-14----15-14-------14-------|
----------------------17-------17-15----17-15-|
----------------------------------------------|


   E   S  S  E   S  S  S  S  S  S  S  S  S  S  
----------------------------------------------|
----------------------------------------------|
----------------------------------------------|
--15--17-15-14--15-14----15-14-------14-------|
----------------------17-------17-15----17-15-|
----------------------------------------------|


   E   S  S  E   S  S  S  S  S  S  S  S  S  S  
----------------------------------------------|
----------------------------------------------|
----------------------------------------------|
--15--17-15-14--15-14----15-14-------14-------|
----------------------17-------17-15----17-15-|
----------------------------------------------|


   E   S  S  E   S  S  S  S  S  S  S  S  S  S  
----------------------------------------------|
----------------------------------------------|
----------------------------------------------|
--15--17-15-14--15-14----15-14-------14-------|
----------------------17-------17-15----17-15-|
----------------------------------------------|


   E   S  S  E   S  S  S  S  S  S  S  S  S  S  
----------------------------------------------|
----------------------------------------------|
----------------------------------------------|
--15--17-15-14--15-14----15-14-------14-------|
----------------------17-------17-15----17-15-|
----------------------------------------------|


   E   S  S  E   S  S  S  S  S  S  S  S  S  S  
----------------------------------------------|
----------------------------------------------|
----------------------------------------------|
--15--17-15-14--15-14----15-14-------14-------|
----------------------17-------17-15----17-15-|
----------------------------------------------|


   E   S  S  S  S  S  S  S  S  S  S  S  S  S  S  
------20-------20-------15-------15-------------|
------------------------------------------------|
------17-------17-------------------------------|
--17-----17-17----14-17-17-14-17-17----14-12----|
------------------------------------15-------15-|
------------------------------------------------|


   S  S  S  S  S  S  S  S  S  S  S  S  S  S  S  S     W                 
--------------------------------------------------|--------------------|
-----------------------13-12----12-13-------------|--------------------|
-----------------------------12----------12-------|--------------------|
--14-12-12-14----12-------------------14----12-14-|--10----------------|
--------------15----15----------------------------|--------------------|
--------------------------------------------------|--------------------|


C
Sejenak engkau terdiam
F
Berselimut tanda tanya
Am           G F
Ada apa, kenapa, mengapa


    PM PM   PM PM   PM PM   PM PM     PM PM  
  S S  S  S S  S  S S  S  S S  S  S S S  S   
--------------------------------------------|
--5-5--5--5-5--5--5-5--5--5-5--5--5-5-5--5--|
--5-5--5--5-5--5--5-5--5--5-5--5--5-5-5--5--|
--5-5--5--5-5--5--5-5--5--5-5--5--5-5-5--5--|
--3-3--3--3-3--3--3-3--3--3-3--3--3-3-3--3--|
--------------------------------------------|

        Kau di ambang kebimbangan
[ Tab from: http://www.guitartabs.cc/tabs/n/netral/pertempuran_hati_tab.html ]
      PM   PM PM   PM PM   PM PM     PM PM  
  S S S  S S  S  S S  S  S S  S  S S S  S   
-------------------------------------------|
--5-5-5--5-5--5--5-5--5--5-5--5--5-5-5--5--|
--5-5-5--5-5--5--5-5--5--5-5--5--5-5-5--5--|
--5-5-5--5-5--5--5-5--5--5-5--5--5-5-5--5--|
--3-3-3--3-3--3--3-3--3--3-3--3--3-3-3--3--|
-------------------------------------------|


      PM   PM PM   PM PM   PM PM     PM PM  
  S S S  S S  S  S S  S  S S  S  S S S  S   
-------------------------------------------|
--5-6-6--6-6--6--6-6--6--6-6--6--6-6-6--6--|
--5-5-5--5-5--5--5-5--5--5-5--5--5-5-5--5--|
--5-5-5--5-5--5--5-5--5--5-5--5--5-5-5--5--|
--3-3-3--3-3--3--3-3--3--3-3--3--3-3-3--3--|
-------------------------------------------|

          Tepi jurang keraguan



      PM   PM PM   PM PM   PM PM     PM PM  
  S S S  S S  S  S S  S  S S  S  S S S  S   
-------------------------------------------|
--6-6-6--6-6--6--6-6--6--8-8--8--8-8-6--6--|
--5-5-5--5-5--5--5-5--5--5-5--5--5-5-5--5--|
--5-5-5--5-5--5--5-5--5--5-5--5--5-5-5--5--|
--3-3-3--3-3--3--3-3--3--3-3--3--3-3-3--3--|
-------------------------------------------|


    PM PM   PM PM   PM PM   PM PM     PM PM  
  S S  S  S S  S  S S  S  S S  S  S S S  S   
--------------------------------------------|
--5-5--5--5-5--5--5-5--5--5-5--5--5-5-5--5--|
--5-5--5--5-5--5--5-5--5--5-5--5--5-5-5--5--|
--5-5--5--5-5--5--5-5--5--5-5--5--5-5-5--5--|
--3-3--3--3-3--3--3-3--3--3-3--3--3-3-3--3--|
--------------------------------------------|

       Jalan mana 


      PM   PM PM   PM PM   PM PM     PM PM  
  S S S  S S  S  S S  S  S S  S  S S S  S   
-------------------------------------------|
--5-5-5--5-5--5--5-5--5--5-5--5--5-5-5--5--|
--5-5-5--5-5--5--5-5--5--5-5--5--5-5-5--5--|
--5-5-5--5-5--5--5-5--5--5-5--5--5-5-5--5--|
--3-3-3--3-3--3--3-3--3--3-3--3--3-3-3--3--|
-------------------------------------------|
      

    PM PM   PM PM   PM PM   PM PM     PM PM  
  S S  S  S S  S  S S  S  S S  S  S S S  S   
--------------------------------------------|
--5-6--6--6-6--6--6-6--6--6-6--6--6-6-6--6--|
--5-5--5--5-5--5--5-5--5--5-5--5--5-5-5--5--|
--5-5--5--5-5--5--5-5--5--5-5--5--5-5-5--5--|
--3-3--3--3-3--3--3-3--3--3-3--3--3-3-3--3--|
--------------------------------------------|

     yang harus kau tempuh

      PM   PM PM   PM PM   PM PM     PM PM                                     
  S S S  S S  S  S S  S  S S  S  S S S  S     S S S S S S S S S S S S S S S S  
-------------------------------------------|----------------------------------|
--6-6-6--6-6--6--6-6--6--6-6--6--6-6-6--6--|----------------------------------|
--5-5-5--5-5--5--5-5--5--5-5--5--5-5-5--5--|--5-5-5-5-5-5-5-5-5-5-5-5-5-5-5-5-|
--5-5-5--5-5--5--5-5--5--5-5--5--5-5-5--5--|----------------------------------|
--3-3-3--3-3--3--3-3--3--3-3--3--3-3-3--3--|--3-3-3-3-3-3-3-3-3-3-3-3-3-3-3-3-|
-------------------------------------------|----------------------------------|

                                                 Ooooohhhhhh.....



  S S S S S S S S S S S S S S S S    S S S S S S S S S S S S S S S S  
----------------------------------|----------------------------------|
----------------------------------|----------------------------------|
--5-5-5-5-5-5-5-5-7-7-7-7-9-9-9-9-|--4-4-4-4-4-4-4-4-5-5-5-5-5-5-5-5-|
----------------------------------|----------------------------------|
--3-3-3-3-3-3-3-3-5-5-5-5-7-7-7-7-|--2-2-2-2-2-2-2-2-3-3-3-3-3-3-3-3-|
----------------------------------|----------------------------------|


  S S S S S S S S S S S S S S S S    S S S S S S S S S S S S S S S S  
----------------------------------|----------------------------------|
----------------------------------|----------------------------------|
--5-5-5-5-5-5-5-5-7-7-7-7-9-9-9-9-|--5-5-5-5-5-5-5-5-5-5-5-5-5-5-5-5-|
----------------------------------|----------------------------------|
--3-3-3-3-3-3-3-3-5-5-5-5-7-7-7-7-|--3-3-3-3-3-3-3-3-3-3-3-3-3-3-3-3-|
----------------------------------|----------------------------------|


  S S S S S S S S S S S S S S S S    S S S S S S S S S S S S S S S S  
----------------------------------|----------------------------------|
----------------------------------|----------------------------------|
--7-7-7-7-7-7-7-7-7-7-7-7-7-7-7-7-|--4-4-4-4-4-4-4-4-4-4-4-4-4-4-4-4-|
----------------------------------|----------------------------------|
--5-5-5-5-5-5-5-5-5-5-5-5-5-5-5-5-|--2-2-2-2-2-2-2-2-2-2-2-2-2-2-2-2-|
----------------------------------|----------------------------------|


  S S S S S S S S S S S S S S S S    S S S S S S S S S S S S S S S S  
----------------------------------|----------------------------------|
----------------x-x-x-x-x-x-x-x-x-|----------------------------------|
--5-5-5-5-5-5-5-x-x-x-x-x-x-x-x-x-|--5-5-5-5-5-5-5-5-5-5-5-5-5-5-5-5-|
----------------x-x-x-x-x-x-x-x-x-|----------------------------------|
--3-3-3-3-3-3-3-x-x-x-x-x-x-x-x-x-|--3-3-3-3-3-3-3-3-3-3-3-3-3-3-3-3-|
----------------------------------|----------------------------------|


  S S S S S S S S S S S S S S S S    S S S S S S S S S S S S S S S S  
----------------------------------|----------------------------------|
----------------------------------|----------------------------------|
--5-5-5-5-5-5-5-5-7-7-7-7-9-9-9-9-|--4-4-4-4-4-4-4-4-5-5-5-5-5-5-5-5-|
----------------------------------|----------------------------------|
--3-3-3-3-3-3-3-3-5-5-5-5-7-7-7-7-|--2-2-2-2-2-2-2-2-3-3-3-3-3-3-3-3-|
----------------------------------|----------------------------------|


  S S S S S S S S S S S S S S S S    S S S S S S S S S S S S S S S S  
----------------------------------|----------------------------------|
----------------------------------|----------------------------------|
--5-5-5-5-5-5-5-5-7-7-7-7-9-9-9-9-|--5-5-5-5-5-5-5-5-5-5-5-5-5-5-5-5-|
----------------------------------|----------------------------------|
--3-3-3-3-3-3-3-3-5-5-5-5-7-7-7-7-|--3-3-3-3-3-3-3-3-3-3-3-3-3-3-3-3-|
----------------------------------|----------------------------------|


  S S S S S S S S S S S S S S S S    S S S S S S S S S S S S S S S S  
----------------------------------|----------------------------------|
----------------------------------|----------------------------------|
--7-7-7-7-7-7-7-7-7-7-7-7-7-7-7-7-|--4-4-4-4-4-4-4-4-4-4-4-4-4-4-4-4-|
----------------------------------|----------------------------------|
--5-5-5-5-5-5-5-5-5-5-5-5-5-5-5-5-|--2-2-2-2-2-2-2-2-2-2-2-2-2-2-2-2-|
----------------------------------|----------------------------------|


  S S S S S S S S S S S S S S S S  
----------------------------------|
----------------x-x-x-x-x-x-x-x-x-|
--5-5-5-5-5-5-5-x-x-x-x-x-x-x-x-x-|
----------------x-x-x-x-x-x-x-x-x-|
--3-3-3-3-3-3-3-x-x-x-x-x-x-x-x-x-|
----------------------------------|


   E   S  S  E   S  S  S  S  S  S  S  S  S  S  
----------------------------------------------|
----------------------------------------------|
----------------------------------------------|
--15--17-15-14--15-14----15-14-------14-------|
----------------------17-------17-15----17-15-|
----------------------------------------------|

   Detik menit berlalu


   E   S  S  E   S  S  S  S  S  S  S  S  S  S  
----------------------------------------------|
----------------------------------------------|
----------------------------------------------|
--15--17-15-14--15-14----15-14-------14-------|
----------------------17-------17-15----17-15-|
----------------------------------------------|
         

   E   S  S  E   S  S  S  S  S  S  S  S  S  S  
----------------------------------------------|
----------------------------------------------|
----------------------------------------------|
--15--17-15-14--15-14----15-14-------14-------|
----------------------17-------17-15----17-15-|
----------------------------------------------|


Engkau di goda engkau di rayu     
Sampai ajal memenggil namamu

Tiap detik menit berlalu
Engkau di coba engkau di rayu
Sampai maut menjemput nyawamu
 



Duration Legend
---------------
W - whole
H - half
Q - quarter
E - 8th
S - 16th
T - 32nd
X - 64th
. - note dotted
|-n-|  - n-tuplets


Tablature Legend
----------------
L - tied note
x - dead note
g - grace note
(n) - ghost note
> - accentuded note
NH - natural harmonic
AH - artificial harmonic
TH - tapped harmonic
SH - semi harmonic
PH - pitch harmonic
h - hammer on
p - pull off
b - bend
br - bendRelease
pb - preBend
pbr - preBendRelease
brb - bendReleaseBend
\n/ - tremolo bar dip
\n - tremolo bar dive
-/n - tremolo bar Release up
/n\ - tremolo bar inverted dip
/n - tremolo bar return
-\n - tremolo bar Release down
S - shift slide
s - legato slide
/ -  slide into from below or out of upwards
\ -  slide into from above or out of downwards
~ - vibrato
W - wide vibrato
tr - trill
TP - tremolo picking
T - tapping
S - slap
P - pop
< - fade in
^ - brush up
v - brush down
Comments