Nesian Mystik - Nesian Style Chords & Tabs

 

Nesian Style Chords & Tabs

Nesian Mystik Chords & Tabs

Version: 2 Type: Tab 0 ratings
1 star 2 stars 3 stars 4 stars 5 stars
comments

Nesian Style Tab

band: Nesian mystik 
song:nesian style



play this sorta slowly

e|---------5--------5-------2-------2---
b|-------5---5----5---5---2---2---2---2-
g|--------------------------------------
d|--------------------------------------
a|--------------------------------------
e|----5--------6--------2-------0-------

[ Tab from: http://www.guitartabs.cc/tabs/n/nesian_mystik/nesian_style_tab_ver_2.html ]
e|------------------------------------------------
b|-----------7---------5------------7---------9---
g|--------6----6----4-----4-----6-----6----8----8-
d|------------------------------------------------
a|----5----------4-----------5-----------7--------
e|------------------------------------------------

play it a couple of times

Thats it.                 
(by me)                                                      
                                                                                                                                                	

Comments