Nesian Mystik - For The People Chords & Tabs

 

For The People Chords & Tabs

Nesian Mystik Chords & Tabs

Version: 1 Type: Tab 0 ratings
1 star 2 stars 3 stars 4 stars 5 stars
comments

For The People Tab

   
-------------------------------------------------------------------------------
			     FOR THE PEOPLE - Nesian Mystik
-------------------------------------------------------------------------------

Tabbed by: James Stowers
Email: james_stowers@hotmail.com

Tuning: Standard

Verse:

 |    Cmaj7      |      D        |       D        |          Em7           |  

e|---------------------------------------------------------------------------|
B|------5------------7--7--------------7-7------------8---------8p7----------|
G|------4------------7--7--------------7-7------------7-------7--------------|
D|------5------5-----7--7------7-------7-7------7-----9-----9----------------|
A|------3----3-------5--5----5---------5-5----5-------7---7------------------|
E|---------------------------------------------------------------------------|




|    Cmaj7      |      D        |       D        |          Em7           |  
[ Tab from: http://www.guitartabs.cc/tabs/n/nesian_mystik/for_the_people_tab.html ]
e|--------------------------------------------------------------9p7----------|
B|------5------------7--7--------------7-7------------8---------8------------|
G|------4------------7--7--------------7-7------------7-------7--------------|
D|------5------5-----7--7------7-------7-7------7-----9-----9----------------|
A|------3----3-------5--5----5---------5-5----5-------7---7------------------|
E|---------------------------------------------------------------------------|

repeat several times

Bridge:

|    Cmaj7      |      D        |       D        |          Em7           |  

e|---------------------------------------------------------------------------|
B|------5------------7--7--------------7-7------------8---------8p7----------|
G|------4------------7--7--------------7-7------------7-------7--------------|
D|------5------5-----7--7------7-------7-7------7-----9-----9----------------|
A|------3----3-------5--5----5---------5-5----5-------7---7------------------|
E|---------------------------------------------------------------------------|


 |  Cmaj7  |   G   |  Em7  |   D   | Cmaj7  |   D   |  Cmaj7  |   G   |   D   |

e|---------------------------------------------------------------------------|
B|---5-----------------8------7--------5--------7--------5---------------7---|
G|---4--------4--------7------7--------4--------7--------4--------4------7---|
D|---5--------5--------9------7--------5--------7--------5--------5------7---|
A|---3--------5--------7------5--------3--------5--------3--------5------5---|
E|------------3---------------------------------------------------3----------|

then repeat verses untill end
Comments