Nerve Agents - Prey Chords & Tabs

 

Prey Chords & Tabs

Nerve Agents Chords & Tabs

Version: 1 Type: Bass Tab 0 ratings
1 star 2 stars 3 stars 4 stars 5 stars
comments

Prey Bass Tab

Nerve Agents - Prey
Submitted By: Kyle
EMail: GP121234@aol.com


h=hold note
Intro-Verse but faster
G----------------------
D----------------------
A-------------1-1-0-000
E-1-11-3-3-33----------
[ Tab from: http://www.guitartabs.cc/tabs/n/nerve_agents/prey_btab.html ]
Chorus
G-------------
D----3-55-3-55
A-5h----------
E-------------

Fast Part Towards end
G-------------------
D-----------5h-5-3-0
A-5-77-5-77---------
E-------------------
Fun fast song. have fun.
Comments