Nerve Agents - I Keep Screaming Chords & Tabs

 

I Keep Screaming Chords & Tabs

Nerve Agents Chords & Tabs

Version: 1 Type: Tab 0 ratings
1 star 2 stars 3 stars 4 stars 5 stars
comments

I Keep Screaming Tab

Nerve Agents - I Keep Screaming
Submitted By: Kyle
EMail: GP121234@aol.com

e|--------------/------------------------------------------------------------|
B|--------------/------------------------------------------------------------|
G|--bass intro--/------------------------------------------------------------|
D|--------------/------------------------------------------------------------|
A|--------------/------------------------------------------------------------|
E|--------------/---3-3-3----------------------------------------------------|
                 (harmonics)  

Verse
e|---------------------------------------------------------------------------|
B|---------------------------------------------------------------------------|
G|-----------9--7--------------------------------9--7--------------7-7-------|
D|--5-5--5---9--7---9-9--9--9-9---------5-5--5---9--7---9-9--9-----7-7----X3-|
A|--5-5--5---7--5---9-9--9--9-9---------5-5--5---7--5---9-9--9-----5-5-------|
E|--3-3--3----------7-7--7--7-7---------3-3--3----------7-7--7---------------|

Chorus
e|---------------------------------------------------------------------------|
B|---------------------------------------------------------------------------|
G|--9-9--9-----------7-7--7--------------------------------------------------|
D|--9-9--9--9-9--9---7-7--7----5-5--5---------------X4-----------------------|
A|--7-7--7--9-9--9---5-5--5----5-5--5----------------------------------------|
E|----------7-7--7-------------3-3--3----------------------------------------|

Verse X3
Chorus X4    then
[ Tab from: http://www.guitartabs.cc/tabs/n/nerve_agents/i_keep_screaming_tab.html ]
Breakdown
                   Guitar 1
e|---------------------------------------------------------------------------|
B|---------------------------------------------------------------------------|
G|-----------------------------------------------5-5-5-5-5-5-5---------------|
D|--2------------------------------2-------------5-5-5-5-5-5-5--7-7-7-7-7-7-7|
A|--2-------------3----------------2-------------3-3-3-3-3-3-3--7-7-7-7-7-7-7|
E|--0-----3---------------5--------0------3---------------------5-5-5-5-5-5-5|
         [     let ring      ]                  [-----------p.m.--------------] 

                   Guitar 2
e|---------------------------------------------------------------------------|
B|---------------------------------------------------------------------------|
G|--9------------------------------9-------------5-5-5-5-5-5-5---------------|
D|--9---let ring-------------------x-------------5-5-5-5-5-5-5--7-7-7-7-7-7-7|
A|--7------------------------------7-------------3-3-3-3-3-3-3--7-7-7-7-7-7-7|
E|--------------------------------------------------------------5-5-5-5-5-5-5|
                                                [----------p.m.---------------] 

Outro
e|---------------------------------------------------------------------------|
B|---------------------------------------------------------------------------|
G|-----------------------------------5-5-5-5-5-5-5---------------------------|
D|--2-2-2-2-2-2-2---5-5-5-5-5-5-5----5-5-5-5-5-5-5--7-7-7-7-7-7-7--------X6--|
A|--2-2-2-2-2-2-2---5-5-5-5-5-5-5----3-3-3-3-3-3-3--7-7-7-7-7-7-7------------|
E|--0-0-0-0-0-0-0---3-3-3-3-3-3-3-------------------5-5-5-5-5-5-5------------|
     [--------------------p.m.------------------------------------] 

End On
e|-------|
B|-------|
G|-------|
D|---2---|
A|---2---|
E|---0---|
Comments