Nerve Agents - Carpe Diem Chords & Tabs

 

Carpe Diem Chords & Tabs

Nerve Agents Chords & Tabs

Version: 2 Type: Bass Tab 0 ratings
1 star 2 stars 3 stars 4 stars 5 stars
comments

Carpe Diem Bass Tab

Artist: The Nerve Agents
Song: Carpe Diem
Album: S/t
Tabbed by: Roboito
E-mail: Punker998@aol.com

Main Riff:
[ Tab from: http://www.guitartabs.cc/tabs/n/nerve_agents/carpe_diem_btab_ver_2.html ]
G:--------------------------------------------------------------
D:--------------------------------------------------------------
A:-------2-2--2-3-3--3---------------2-2--2-3-3--3--------------
E:-0-0--0-------------3-3--3-2-2-0-0--------------3-3--3-2-2-0-0

Chorus:

G:------------------------------------------------------
D:------------------------------------------------------
A:-2-2-2-2---3--2-2-2-2---3--2-2-2-2---3-5-5-5-5-7-7-7-7
E:---------3------------3------------3------------------ 
Comments