Nerf Herder - For You Chords & Tabs

 

For You Chords & Tabs

Nerf Herder Chords & Tabs

Version: 1 Type: Tab 0 ratings
1 star 2 stars 3 stars 4 stars 5 stars
comments

For You Tab

   
Nerf Herder - For You
Tabbed By: Daniel Taylor
EMail: danielt88@hotmail.com


Intro (with fast drums)

E------------------------------------------
B------------------------------------------
G---9-9-9-9-9-9-9-9-9-9-9-9-9-9-9-9-9-9----
D---9-9-9-9-9-9-9-9-9-9-9-9-9-9-9-9-9-9----
A---7-7-7-7-7-7-7-7-7-7-7-7-7-7-7-7-7-7----
E------------------------------------------

Verses

A                   D    A                         D
I would hire the A-team, and I'd crash the general Lee
A                           F#
I'd make cocktails like Tom Cruise,
B                         E
and I'd rollerblade with Corey Feldman for you

A                   D
I'd do anything for you
A                   D
I'd do anything for you, 
A                   B        E
I'd do anything for you, for you

Bit before solo
[ Tab from: http://www.guitartabs.cc/tabs/n/nerf_herder/for_you_tab.html ]
D                           E        A
and I'd bid too high on the price is right
D                    E         A
and I'd sweat to the oldies all night
D                     E
I'd be depressed like Morrisey
A G# F# E D
And slayed by Buffy every week
D                 E     A
I would do anything for you

Solo

E------------------------------------------------------------------------
B--5----7---5----2--3--2--0---2-----------5----7--5----2--3--2--0--2-----


E----------------------------------------------------------------
B---5---7---5---2--3--2--0---2------7--5--4-----5--3--2----------

Outro

E-------------------------------------
B-------------------------------------
G---------------------1--1------------
D----12--11----9------2--2-----7------
A----12--11----9------2--2-----7------
E----10---9----7---------------5------

There you go, have fun.
Comments