Nerf Herder - Buffy Theme Song Chords & Tabs

 

Buffy Theme Song Chords & Tabs

Nerf Herder Chords & Tabs

Version: 1 Type: Tab 0 ratings
1 star 2 stars 3 stars 4 stars 5 stars
comments

Buffy Theme Song Tab

email any comments, questions or suggestions to chungkaa@hotmail.com

NERF HERDER – “Buffy The Vampire Slayer” Theme Song

Tabulated by ‘Joel the Guitar Master’ because it’s kick ass! And all the other versions of this that I’ve seen on the web are total crap! 
This is PEEEEEEEERFECT!
Note: I had my guitar tuned down a step when I made this.


There’s some scratching on the strings at the start.
E-------------------------------------------|
B-------------------------------------------|
G-10------12--13--8------8-8-----10--12--8--|
D-10------12--13--8------8-8-----10--12--8--|
A--8------10--11--6------6-6------8--10--6--|
E-------------------------------------------|

E------------------------------------------|
B------------------------------------------|
G-10-10-10-10-10-10-10-10-10----12--12-13--|
D-10-10-10-10-10-10-10-10-10----12--12-13--|
A--8--8--8--8--8--8--8--8--8----10--10-11--|
E------------------------------------------|

E-----------------------------------------------------------------|
B-----------------------------------------------------------------|
G-8-8-8-8-8-8-8-8-8-8-8-8-8-8-8-8-8-8-8-8-8-8-8-8-8-8-8-8--10-12--|
D-8-8-8-8-8-8-8-8-8-8-8-8-8-8-8-8-8-8-8-8-8-8-8-8-8-8-8-8---8-10--|
A-6-6-6-6-6-6-6-6-6-6-6-6-6-6-6-6-6-6-6-6-6-6-6-6-6-6-6-6---8-10--|
E-----------------------------------------------------------------|
[ Tab from: http://www.guitartabs.cc/tabs/n/nerf_herder/buffy_theme_song_tab.html ]
E---------------------------------------------------------|
B---------------------------------------------------------|
G-8-8-8-8-8-8-8-8-8-8-8-8-8-8-8-8--15-17-17-13--13-13-12--|
D-8-8-8-8-8-8-8-8-8-8-8-8-8-8-8-8--15-17-17-13--13-13-12--|
A-6-6-6-6-6-6-6-6-6-6-6-6-6-6-6-6--13-15-13-11--11-11-10--|
E---------------------------------------------------------|

A bit more scratching at the start of this part.
E----8-8-8-8-8-8-8-8-8-8-8-11--13--8-8-8-8-8-8-8-8-8-8-8-11--13--|
B-9--------------------------------------------------------------|
G----------------------------------------------------------------|
D----------------------------------------------------------------|
A----------------------------------------------------------------|
E----------------------------------------------------------------|

E-6-6-6-6-6-6-6-6-6-6-6-8--9--6-6-6-6-6-6-6-6-6-6-6-6-6-6-6-6--|
B--------------------------------------------------------------|
G--------------------------------------------------------------|
D--------------------------------------------------------------|
A--------------------------------------------------------------|
E--------------------------------------------------------------|

E-7-7-7-7-7-7-7-7-7-7-7-7-7-7-7--------------|
B--------------------------------------------|
G--------------------------------10----------|
D--------------------------------10---3---3--|
A---------------------------------8---3---3--|
E-------------------------------------1---1--|

email any comments, questions or suggestions to chungkaa@hotmail.com

Comments