Nerd - Lapdance Chords & Tabs

 

Lapdance Chords & Tabs

Nerd Chords & Tabs

Version: 1 Type: Tab 0 ratings
1 star 2 stars 3 stars 4 stars 5 stars
comments

Lapdance Tab

   
A kool song from a kool group 

e)---------------------------------------------------------
b)---------------------------------------------------------
g)---------------------------------------------------------
d)---------------------------------------------------------
a)---------------------------------------------------------
e)-1-0-1-1-2-2-2-1-0-1-1-2-2-2-1-0-1-1-2-2-2-1-1-1-1-1-1-1-1
[ Tab from: http://www.guitartabs.cc/tabs/n/nerd/lapdance_tab.html ]
Then in the chourus you play:
e)---------------------------------------------------------
b)---------------------------------------------------------
g)---------------------------------------------------------
d)3-2-3-3-4-4-4-3-2-3-3-4-4-4-3-2-3-3-4-4-4-3-3-3-3-3-3-3-3
a)3-2-3-3-4-4-4-3-2-3-3-4-4-4-3-2-3-3-4-4-4-3-3-3-3-3-3-3-3
e)1-0-1-1-2-2-2-1-0-1-1-2-2-2-1-0-1-1-2-2-2-1-1-1-1-1-1-1-1
      ^ ^ ^ ^ ^     ^ ^ ^ ^ ^     ^ ^ ^ ^ ^ ^ ^ ^ ^ ^ ^ ^ ^ 
^=PM
This song is petty easy.The rythm isnt shown and i think i screwed up
in the palm muting but you can figure it out.
Comments