Nerd - Breakout Chords & Tabs

 

Breakout Chords & Tabs

Nerd Chords & Tabs

Version: 1 Type: Tab 1 rating
1 star 2 stars 3 stars 4 stars 5 stars
comments

Breakout Tab

This is my first tab like everyone else, it is pretty close.
If you can make this better let me know, dasaleen@hotmail.com.

Tabbed by: Henry Triche
Artist: N.E.R.D.
Album: Fly or Die
Song: Breakout

It just happened...
e|-----------------------------------4-4-4-4-----
B|------6-------4-------2-------4----6-6-6-6-----
G|----5---5---3---3---1---1---3---3--5-5-5-5-----
D|--6-------5-------3-------5--------6-6-6-6-----
A|-----------------------------------4-4-4-4-----
E|-----------------------------------4-4-4-4-----
                 OR
e|-------------------------4-4-4-4---------------
B|--6---6-4---4-2---2-4----6-6-6-6---------------
G|--5---5-3---3-1---1-3----5-5-5-5---------------
D|--6---6-5---5-3---3-5----6-6-6-6---------------
A|-------------------------4-4-4-4---------------
E|-------------------------4-4-4-4---------------

Why the tears have no fear...
e|--4---4-3---3-1---1-3----4---------------------
B|--6---6-4---4-2---2-4----6---------------------
G|--5---5-3---3-1---1-3----5---------------------
D|--6---6-5---5-3---3-5----6---------------------
A|--4---4-3---3-1---1-3----4---------------------
E|--4---4-3---3-1---1-3----4---------------------

Chorus (Funk style)
If you feel just like I feel, PUSH PEOPLE...
e|--4----3----4-3----3----3----------------------
B|--6----4----6-6----6----5----------------------
G|--5----3----3-3----3----3----------------------
D|--6----5----5-5----5----5----------------------
A|--4----3----3-3----3----3----------------------
E|--4----3----3-3----3----3----------------------
[ Tab from: http://www.guitartabs.cc/tabs/n/nerd/breakout_tab.html ]
Breakout x11
e|--4----3----4-3----3----3----------------------
B|--6----4----6-6----6----5----------------------
G|--5----3----3-3----3----3----------------------
D|--6----5----5-5----5----5----------------------
A|--4----3----3-3----3----3----------------------
E|--4----3----3-3----3----3----------------------

All you can be is just you cause...
e|--4---4-3---3-1---1-3----4---------------------
B|--6---6-4---4-2---2-4----6---------------------
G|--5---5-3---3-1---1-3----5---------------------
D|--6---6-5---5-3---3-5----6---------------------
A|--4---4-3---3-1---1-3----4---------------------
E|--4---4-3---3-1---1-3----4---------------------

Why the tears...
e|--4---4-3---3-1---1-3----4---------------------
B|--6---6-4---4-2---2-4----6---------------------
G|--5---5-3---3-1---1-3----5---------------------
D|--6---6-5---5-3---3-5----6---------------------
A|--4---4-3---3-1---1-3----4---------------------
E|--4---4-3---3-1---1-3----4---------------------

Chorus (Funk style)
If you feel just like I feel, PUSH PEOPLE...
e|--4----3----4-3----3----3----------------------
B|--6----4----6-6----6----5----------------------
G|--5----3----3-3----3----3----------------------
D|--6----5----5-5----5----5----------------------
A|--4----3----3-3----3----3----------------------
E|--4----3----3-3----3----3----------------------

Breakout x11
e|--4----3----4-3----3----3----------------------
B|--6----4----6-6----6----5----------------------
G|--5----3----3-3----3----3----------------------
D|--6----5----5-5----5----5----------------------
A|--4----3----3-3----3----3----------------------
E|--4----3----3-3----3----3----------------------

Hey! S**t happens, hey, just blow it off...
e|--4---4-3---3-1---1-3----4---------------------
B|--6---6-4---4-2---2-4----6---------------------
G|--5---5-3---3-1---1-3----5---------------------
D|--6---6-5---5-3---3-5----6---------------------
A|--4---4-3---3-1---1-3----4---------------------
E|--4---4-3---3-1---1-3----4---------------------
Comments