Neptunas - Davy Jones Liquor Locker Chords & Tabs

 

Davy Jones Liquor Locker Chords & Tabs

Neptunas Chords & Tabs

Version: 1 Type: Tab 0 ratings
1 star 2 stars 3 stars 4 stars 5 stars
comments

Davy Jones Liquor Locker Tab

                   Neptunas- Davy Jones Liquor Locker
                    Tabbed by babydyke80@yahoo.com

This is a lovely little surfer song by a kick a** all female band.

                                                                        
E---|-----------0---------------||--------------------------------------
B---|-3-------3---2-------------||--------------------------------------
G---|---2-0---------2-0---------||--------------------------------------
D---|-------3-----------3-2-3-0-||--------------------------------------
A---|---------------------------||--------------------------------------
E---|---------------------------||--------------------------------------
                                                                        
          
                                                            
E-----1-3-4-3-4-9-4-3-----1---1---1---1---||----------------------------
B---3-----------------2-----3---3---3---3-||----------------------------
G-----------------------2-----------------||----------------------------
D-----------------------------------------||----------------------------
A-----------------------------------------||----------------------------
E-----------------------------------------||----------------------------
                                                                        

                                                                        
E-----------------------------------||----------------------------------
B---3-------------------------------||----------------------------------
G-----2---0---------3-2-3-2-3-2-3-2-||----------------------------------
D-------3---0-0---------------------||----------------------------------
A---------------4-0-----------------||----------------------------------
E-----------------------------------||----------------------------------
                                                                        

                                          let open notes ring           
E-----1-3^-(4)-1-------1---1---1---1---||---------------||--------------
B---3------------3-2-----3---3---3---3-||---3-----------||--------------
G--------------------2-----------------||-----2---------||--------------
D--------------------------------------||-0-----2-3-2-3-||--------------
A--------------------------------------||---------------||--------------
E--------------------------------------||---------------||--------------
                                                                        

                     let open notes ring                  
E-----------------||---3-----------||---------------||------------------
B-----3-----------||-----2---------||---3-----------||------------------
G-------2---------||-0-----2-3-2-3-||-----2---------||------------------
D---0-----3-5-3-5-||---------------||-0-----3-5-3-5-||------------------
A-----------------||---------------||---------------||------------------
E-----------------||---------------||---------------||------------------
                                                                        
[ Tab from: http://www.guitartabs.cc/tabs/n/neptunas/davy_jones_liquor_locker_tab.html ]
                             sustain and use "whammy bar"               
E---------------------------||-10-5-10-5-15-11-10-5-||------------------
B---------------------------||-10-5-10-5-15-11-10-5-||------------------
G---------------------2-----||----------------------||------------------
D---5-7-5-3-5-3-2-3-2---2---||----------------------||------------------
A-------------------------0-||----------------------||------------------
E---------------------------||----------------------||------------------
                                                                        

                                                                        
E---------------------------||-----------0---------------||-------------
B---------------------------||-3-------3---2-------------||-------------
G---------------------2-----||---2-0---------2-0---------||-------------
D---5-7-5-3-5-3-2-3-2---2---||-------3-----------3-2-3-0-||-------------
A-------------------------0-||---------------------------||-------------
E---------------------------||---------------------------||-------------
                                                                        

                                                                        
E-----1-3-4-3-4-9-4-3-----1---1---1---1---||----------------------------
B---3-----------------2-----3---3---3---3-||----------------------------
G-----------------------2-----------------||----------------------------
D-----------------------------------------||----------------------------
A-----------------------------------------||----------------------------
E-----------------------------------------||----------------------------
                                                                        

                                                                        
E-----------------------------------||----------------------------------
B---3-------------------------------||----------------------------------
G-----2---0---------3-2-3-2-3-2-3-2-||----------------------------------
D-------3---0-0---------------------||----------------------------------
A---------------4-0-----------------||----------------------------------
E-----------------------------------||----------------------------------
                                                                        

                                                                        
E-----1-3^-(4)-1-------1---1---1---1------------------------------------
B---3------------3-2-----3---3---3---3----------------------------------
G--------------------2--------------------------------------------------
D-----------------------------------------------------------------------
A-----------------------------------------------------------------------
E-----------------------------------------------------------------------
                                                                        



========================================================================
==                       TABLATURE EXPLANATION                        ==
========================================================================

----------                ----------                ----t---
----5h8--- Hammeron       ----(8)--- Ghost          ----6--- Tap
----------                ---------- Note           --------
----5p8--- Pulloff        ----------                --------

----------                ----------                -----p--
----5/8--- Slide Up       -----x---- Dead           -----7-- Pop
----------                ---------- Note           --s-----
----5\8--- Slide Down     ----------                --5----- Slap 

----------                ||------|| Repeat         --------
----5~~~-- Vibrato        ||*----*||                ---5^--- Bend
----------                ||*----*||                --------
----------                ||------||                --------

----------                ----------                --------
-4:------- Time           ----------                --------
-4:------- Signature      ----------                --------
----------                ----------                --------
Comments