Nephew - Superliga Chords & Tabs

 

Superliga Chords & Tabs

Nephew Chords & Tabs

Version: 1 Type: Tab 0 ratings
1 star 2 stars 3 stars 4 stars 5 stars
comments

Superliga Tab

Band: Nephew
Song: Superliga
Tabbed by: The Disk (disk@jubiimail.dk)

r: Let Ring
~: How long to let ring

Guitar:

  Tuning: EADGBe / Standard

Bass

  Tuning: EADG / Standard

Intro:

Guitar

e|------------------------------------------------|
B|------------------------------------------------|
G|------------------------------------------------|
D|------------------------------------------------|
A|--7--7--7--7--5--5--5--8---8--8--8--8--8--8--8--|
E|------------------------------------------------|

Repeat x 3
[ Tab from: http://www.guitartabs.cc/tabs/n/nephew/superliga_tab.html ]
e|---------------------------------------------------------------------------|
B|---------------------------------------------------------------------------|
G|---------------------------------------------------------------------------|
D|---------------------------------------------------------------------------|
A|7--7--7--7--5--5--5--8---8--8--8--8--8--8--8--8--8--8--8--8--8--8--8--8--8|
E|---------------------------------------------------------------------------|

Verse:

Guitar

e|------------------------------------------------|
B|------------------------------------------------|
G|------------------------------------------------|
D|------------------------------------------------|
A|--7--7--7--7--5--5--5--8---8--8--8--8--8--8--8--|
E|------------------------------------------------|

Bass

    r~~~~~~~~~~~r~~~~~~~~r~~~~~~~~~~~~~~~~~~~~~~~~
G|------------------------------------------------|
D|------------------------------------------------|
A|--5-----------3--------6------------------------|
E|------------------------------------------------|

Repeat...
Comments