Nelson Willie - Sleep In Your Arms Chords & Tabs

 

Sleep In Your Arms Chords & Tabs

Nelson Willie Chords & Tabs

Version: 1 Type: Bass Tab 0 ratings
1 star 2 stars 3 stars 4 stars 5 stars
comments

Sleep In Your Arms Bass Tab

Sleep in your arms
Willie nelson

Intro
-----------------------------------------
---------------------6-7-----------------
-7-------7---------------0------------7--
---7-0-0---7-7-7-0-0-------7-7-0--5-7----

Verse
--------------------------------------
------------------------6-7-9---------
-7-------7---7----7---7-------9-----6-
---5-7-7---7---7-7--7-----------7-9---

-------------------------------------
---9-----6-7---7-7-8-9-----------7---
-7---7-9-----7---------9-----6-7---7-
-------------------------7-9---------

---------------------------------11----------------------9--------
-----------9-----------9---7-8-9----9-11-13-14-9-----6-7---7-7-8--
---------7---7-----6-7---7-----------------------7-9--------------
-0-0-7-7-------7-9------------------------------------------------
[ Tab from: http://www.guitartabs.cc/tabs/n/nelson_willie/sleep_in_your_arms_btab.html ]
-----------------------------
-9-----------7---------------
---9-----6-7---7-------------
-----7-9---------------------

Piano solo
Repeat intro (minus the G#)

-----------------------------------------
-----------------------------------------
-7-7---------7-----6-7---7-6-----9-----6-
-----7-7-0-7---7-9-----7-----9-7---7-9---

-----------------------------------------
---9-----6-7---7-7-8-9---9-11-13-14------
-7---7-9-----7---------9------------12-7-
-----------------------------------------

----------------------------9------------
--------------9-----------9---7-8-9---9--
-7-7-9----6-7---7-----6-7-----------9----
------7-9---------7-9--------------------

---------------------------------------------------
-------------------6-7---7-7-8-9---9-----7----/9---
-----6-7----76---9-----7---------9-----7---7-----7-
-7-9-----7-7--97---------------------7-------------

Comments