Nelson Willie - Angel Flying Too Close To The Ground Solo Chords & Tabs

 

Angel Flying Too Close To The Ground Solo Chords & Tabs

Nelson Willie Chords & Tabs

Version: 1 Type: Tab 0 ratings
1 star 2 stars 3 stars 4 stars 5 stars
comments

Angel Flying Too Close To The Ground Solo Tab

Angel Flying  Solo:
Willie Nelson

Standard Tuning, follow along with the song for exact timing.

 

        |------------------------------------------------------
        |-----------5-----7----9-----10-10-10---10--10-10---9--
        |-----------------------------------------9------------
        |------------------------------------------------------
        |------------------------------------------------------
        |------------------------------------------------------

        |------------------------------------------------------ 
        |---5--5-5--5s7--7-9--10--10s5-5-5---------------------
        |------------------------------------------------------
        |------------------------------------------------------
        |------------------------------------------------------
        |------------------------------------------------------

        |-----------------------------------------5s7-------------
        |---2--3-3--3-3--3-3-3---0-0-0------------5s7-------------
        |---------------------------------------------------------
        |---------------------------------------------------------
        |---------------------------------------------------------
        |---------------------------------0-0-0-------------------

[ Tab from: http://www.guitartabs.cc/tabs/n/nelson_willie/angel_flying_too_close_to_the_ground_solo_tab.html ]
        |---------------------------------------------------------
        |---------------------------------------------------------
        |---------------------------------------------------------
        |--------------------------------7-7-7----7--6------------
        |---------------------------------------------------------
        |-0-0--0-0--0-1--1-2--2-4--4-5----------------------------



 |----------------------------------------------------------------
 |----------------------------------------------------------------
 |----------------------------------------------------------------
 |---6-5--5-4----4--6--7--7s2-2-2-2-------------------------------
 |----------------------------------------------------------------
 |----------------------------------------------------------------

|-----------------------------------------------------------------
|-----------------------------------------------------------------
|-----------------------------------------------------------------
|-----------------------------------------------------------------
|--0-0-0-0-0-0--0-1-2s4--4-3--3-2--2------------------------------
|-----------------------------------------------------------------

 |----------------------------------------------------------------
 |----------------------------------------------------------------
 |----------------------------------------------------------------
 |----------------------------------------------------------------
 |----------------------------------------------------------------
 |--0-0-0-0-0--0-1--1-2--2-4--4-5---------------------------------
Comments