Nelly - Ride Wit Me Chords & Tabs

 

Ride Wit Me Chords & Tabs

Nelly Chords & Tabs

Version: 2 Type: Tab 0 ratings
1 star 2 stars 3 stars 4 stars 5 stars
comments

Ride Wit Me Tab

Nelly, Ride Wit Me.
Tabbed by Sam, samlee@zxmail.com.
  
::NELLY:: 'RIDE WIT ME'
Tabbed by: redman
e-mail: samlee@zxmail.com
[ Tab from: http://www.guitartabs.cc/tabs/n/nelly/ride_wit_me_tab_ver_2.html ]
E-----------7-----------palm muted here----
B--7-h^8--8--6/7--5----------------------
G--9-------9--6/7--5---7-h^9-9-9-7-h^9-9-9
D--9-------9--6/7--5----------------------
A--7-------7--4/5--3----------------------
E---------------------------------------

Chords part again followed by

---palm muted here---
E-------------------------
B---------------8-7-----
G--7-h^9-9-9------9-7-
D---------------------
A---------------------
E---------------------
 
:: Ultimate Guitar Archive :: 
http://www.ultimate-guitar.com 

Comments