Nelly - Ride Wit Me Remix Chords & Tabs

 

Ride Wit Me Remix Chords & Tabs

Nelly Chords & Tabs

Version: 1 Type: Tab 0 ratings
1 star 2 stars 3 stars 4 stars 5 stars
comments

Ride Wit Me Remix Tab

   
Author/Artist: Nelly Feat. John Mayer
Title: Ride Wit Me Remix
Album: Da Derrty Versions
Transcribed by: Mike Dell
Email: nitro25000@hotmail.com
Standard Tuning
Acoustic works best
h - Hammer on
* - Palm mute
* - Harmonics
I just tabbed this out this mourning listening to this tune. its very simple, 
but sometimes the simplest stuff sounds the best.
 
Chorus
    A2 or     E
e-|-0-----0---0----------------------------------------------------------------
B-|-0-----0---0----------------------------------------------------------------
G-|-2-----6---1----------------------------------------------------------------
D-|-2-----7---2----------------------------------------------------------------
A-|-0-----7---2----------------------------------------------------------------
E-|-------5---0----------------------------------------------------------------
[ Tab from: http://www.guitartabs.cc/tabs/n/nelly/ride_wit_me_remix_tab.html ]
Verse
This can be played 2 ways, each sounds good but i think john really uses the 
low E
                                                                              
     E               Emaj7                E
e-|--0--0--0--0--0-0-0--0--0--0--0--0--0-0-------------------------------------
B-|--0--0--0--0--0-0-0--0--0--0--0--0--0-0-------------------------------------
G-|--1--1--1--1--1-1-1--1--1--1--1--1--1-1-------------------------------------
D-|--2--2--2--2--2-2-1--1--1--1--1--1h22-2-------------------------------------
A-|--2--2--2--2--2-2-2--2--2--2--2--2--2-2-------------------------------------
E-|--0--0--0--0--0-0-0--0--0--0--0--0--0-0-------------------------------------
(pm) *  *  *     *      *  *  *  *       *                                        


    e5              Emaj7               e5
e-|-0--------0--0-0-0--0-----------0----0--------------------------------------
B-|-0--------0--0-0-0--0-----------0----0--------------------------------------
G-|-9--------9--9-9-8--8-----------8h9--9--------------------------------------
D-|-9--------9--9-9-9--9-----------9----9--------------------------------------
A-|-7--------7--7-7-7--7-----------7----7--------------------------------------
E-|-0--------0--0-0-0--0-----------0----0--------------------------------------
(pm)*           *      *                                                         

There are also some harmonics during the verse

e-|----------------*7-------*5-----------|-*5-------*7-------------------------
B-|---------*7---------------------------|------------------*7--------*12------
G-|--------------------------------------|-------------------------------------
D-|--------------------------------------|-------------------------------------
A-|--------------------------------------|-------------------------------------
E-|--------------------------------------|-------------------------------------
                                                                              

Bridge

Just palm mute the chorus, I think


Thats it, its a pretty easy song,, eh?
Mike
Comments